IndyTab Logo

BETA VERSION - 321 TABS DISPONIBILI

Cerca una tablatura nel nostro archivio:

Gruppo Canzone


Elenco dei gruppi presenti su IndyTab
Lista di tutte le tablature di IndyTab
DISCLAIMER
Questa tablatura rappresenta l'interpretazione della canzone da parte dell'autore. Può essere usata per scopi di studio, insegnamento e ricerca.

La tab è liberamente riproducibile in forum, blog, siti web (ad eccezione degli archivi di tablature online) e stampabile. Non è obbligatorio ma molto gradito citare la fonte (cioè IndyTab), meglio con un link di rimando al nostro sito.
ACCORDATORE
Per accordare la tua chitarra puoi usare il nostro accordatore online
TAB REQUEST
Stai cercando una tablatura? Suggeriscila compilando il modulo sottostante!

Gruppo
Titolo
Tua Mail

(la tua mail verrà usata per ricontattarti quando la tablatura sarà online)
DELLO STESSO GRUPPO

Peter Punk // Diplomati

Tablatura tratta dall'album: Peter Punk

(clicca qui per la legenda)

     D  A  B  G
e|-----------------|
B|-----------------|
G|---7-------------|
D|---7--7--9--5----|
A|---5--7--9--5----|
E|------5--7--3----|


--------------------------------------------------------------------------


RITORNELLO:

D   A  B   G
Vooooi Vooooi

D   A  B   G
Vooooi Vooooi



STROFA:

D..
Buon giorno mi presento

        A..
Sono un boy volonteroso

        B..                   G..   A..
Sono in cerca di lavoro si ma tu mi vuoi?

D..
So lavorare il vetro

        A..
E so saldare anche l’acciaio

     B..                   G..   A..
Un onesto un operaio tu lo assumerai



PONTE:

G                          D
Se son meridionali, non li fanno lavorare

G                    D
Se son orientali, li mandano a cagare

G                            A..     pick-slide
Se invece hanno studiato gli danno anche del...



RITORNELLO:
(ripetere ritornello)



STROFA:

D..
Con queste discriminazioni

A..                      B..
Tutti gli stranieri sono visti

                  G..  A..
Come scarti della società

D..                       A..
E vengono scherniti dai padroni

                  B..
Quali son "truccazzari"

                      G..     A..
E credon di essere il top dei top



PONTE:
(ripetere ponte)



RITORNELLO:
(ripetere ritornello)



SOLO:
e|--------------------------------------------------|
B|--------------7----7--8-7---7---------------------|
G|--7----7-9-------9--------9---9--7----------------|
D|-----7-----7--------------------------------------|
A|--------------------------------------------------|
E|--------------------------------------------------|
    D      A    B       G

e|-------------------------------------------------------|
B|--------------7----7-8-8-8--10-10----------------------|
G|--7----7-9-------9-------------------7-------7--7------|
D|-----7-----7-------------------------------------------|
A|-------------------------------------------------------|
E|-------------------------------------------------------|
    D      A    B      G               D..    [D][D]
COMMENTI
12/2/09 20:14, Ricky_notag:
ottima...

COMMENTA QUESTA TABLATURA
Devi avere JavaScript attivato per poter commentare! (misura antispam)