IndyTab Logo

BETA VERSION - 321 TABS DISPONIBILI

Cerca una tablatura nel nostro archivio:

Gruppo Canzone


Elenco dei gruppi presenti su IndyTab
Lista di tutte le tablature di IndyTab
DISCLAIMER
Questa tablatura rappresenta l'interpretazione della canzone da parte dell'autore. Può essere usata per scopi di studio, insegnamento e ricerca.

La tab è liberamente riproducibile in forum, blog, siti web (ad eccezione degli archivi di tablature online) e stampabile. Non è obbligatorio ma molto gradito citare la fonte (cioè IndyTab), meglio con un link di rimando al nostro sito.
ACCORDATORE
Per accordare la tua chitarra puoi usare il nostro accordatore online
TAB REQUEST
Stai cercando una tablatura? Suggeriscila compilando il modulo sottostante!

Gruppo
Titolo
Tua Mail

(la tua mail verrà usata per ricontattarti quando la tablatura sarà online)
DELLO STESSO GRUPPO

Peter Punk // Caro Amico

Tablatura tratta dall'album: Peter Punk

(clicca qui per la legenda)

   C  A  F  G  E
e|---------------------|
B|---------------------|
G|-5-------------------|
D|-5--7--3--5--2-------|
A|-3--7--3--5--2-------|
E|----5--1--3--0-------|


--------------------------------------------------------------------------


INTRO:
C.. A.. F.. G..
(pickslide)
C A F G C..
(pickslide)



STROFA:

C..               A..      XX
Caro amico non ci crederai

F..                   G..        XX
Ma alla fine ce l’ ho fatta sai

C..                A..     XX  F..              G..       [G][G]
Conquistare la mia libertà     e saluti a mamma e a papà.



RITORNELLO:

   C                 E                   F             G + RIFF
Però mi mancan tanto sai gli gnocchi col ragù e a casa tornerei

C               E                F                  G + RIFF
E a volte penso che le tue comodità non sono fai da te

(RIFF:)
e|--------------------|
B|--------------------|
G|--12--10--9---7---5-|
D|--------------------|
A|--10--8---7---5---3-|
E|--------------------|



STACCO:
C A F G x2



STROFA:

C..               A..      XX
Le bollette son salate poi

F..                G..        XX
Qui l’affitto lo paghiamo noi

C..                  A..           XX
Non c’è più papà che sborsa i cash

F..                   G..      [G][G]
Con la banca siamo in debito!



RITORNELLO:
(ripetere il ritornello)



SOLO:
(Ritmica: C A F G  x2)

e|-------------------------------------------------------|
B|-----5-------------------------------------------------|
G|-5-7---7-5-7-5---5----5--7/9-10-10---9-7-9-7--5-7b9b7~-|
D|---------------7---7-----------------------------------|
A|-------------------------------------------------------|
E|-------------------------------------------------------|

e|-------------------------------------------------------|
B|-----5-------------------------5-6-5---------------8---|
G|-5-7---7-5-7-5---5---------5-7-------7-5-7b9b7---5-----|
D|---------------7---7--5/77-----------------------------|
A|-------------------------------------------------------|
E|-------------------------------------------------------|



OUTRO:
C.. [C]

e|--------------------------------------------------|
B|--------------------------------------------------|
G|--5--7-5--4-5--7-5--4-5--7-5--4-5--7--9--7--------|
D|--------------------------------------------------|
A|--3--5-3--2-3--5-3--2-3--5-3--2-3--5--7--5--------|
E|--------------------------------------------------|
    C         A         F         G

e|--------------------------------------------------|
B|--------------------------------------------------|
G|--5--7-5--4-5--7-5--4-5--7-5--4-5--7--9--7----5---|
D|--------------------------------------------------|
A|--3--5-3--2-3--5-3--2-3--5-3--2-3--5--7--5----3---|
E|--------------------------------------------------|
    C         A         F         G            [C]
COMMENTA QUESTA TABLATURA
Devi avere JavaScript attivato per poter commentare! (misura antispam)