IndyTab Logo

BETA VERSION - 321 TABS DISPONIBILI

Cerca una tablatura nel nostro archivio:

Gruppo Canzone


Elenco dei gruppi presenti su IndyTab
Lista di tutte le tablature di IndyTab
DISCLAIMER
Questa tablatura rappresenta l'interpretazione della canzone da parte dell'autore. Può essere usata per scopi di studio, insegnamento e ricerca.

La tab è liberamente riproducibile in forum, blog, siti web (ad eccezione degli archivi di tablature online) e stampabile. Non è obbligatorio ma molto gradito citare la fonte (cioè IndyTab), meglio con un link di rimando al nostro sito.
ACCORDATORE
Per accordare la tua chitarra puoi usare il nostro accordatore online
TAB REQUEST
Stai cercando una tablatura? Suggeriscila compilando il modulo sottostante!

Gruppo
Titolo
Tua Mail

(la tua mail verrà usata per ricontattarti quando la tablatura sarà online)
DELLO STESSO GRUPPO

Porno Riviste // Nudo

Tablatura tratta dall'album: Fino Alla Fine

(clicca qui per la legenda)

(clicca qui per il video)

    C  G  A  F  Bb
e|------------------|
B|------------------|
G|--5-----------3---|
D|--5--5--7--3--3---|
A|--3--5--7--3--1---|
E|-----3--5--1------|


--------------------------------------------------------------------------


[C] [G] [C]        C
           Ti vedi nudo

      G            A
Nel silenzio di un istante solo e c'è

            F
Di fronte a te

             G
Un ego senza se

         C                G
Ti fissa coi suoi sguardi intensi

     A
Come per ipocrisia

         F
Invece è solo

         G
Pura pazzia

         [A]              G
Ma tu non guardi dentro a quello specchio

[F]            G
Dove il vero è solo un eco

[A]          G          F    [G]
Che proviene dalla fantasia

           C       Bb F
Seguine la scia...

G          C       Bb  [Bb][A][G][F][G][A] (tutti in p.m.)
Seguine la scia...

         C            G
Ti senti chiuso in un istante solo

  A
È buio intorno a te

           F
Ma sai che c'è 

                  G
Il tempo e i tuoi perché

        C            G          A
Per meditare e per capire quale luce accendere

          F            G               Bb
Se dentro lui o dentro te, se è dentro te

             C
Sei dentro a lui e non riesci a spingerlo

     G
E rimpiangi i tuoi perché

         A
Ti costa solo la tua vita e

      F              G
Te ne fotti e sai perché

              C
Ti scoppia un brivido, il rimpianto

   G           
La follia e l'ipocrisia

          A             Bb           [Bb][A][G][F][G][A][C] (tutti in p.m.)
Di quella situazione un po' lascia!



e|-------------------------------------------------------------------|
B|-5-----6-6-5h6p5---5-----6-6-5h6p5---5-----6-6-5h6p5-----------8-6-|
G|---5-------------7---5-------------7---5-------------5-7-----------|
D|-----3-----------------3-----------------3-------------------5-----|x2
A|-------------------------------------------------------------------|
E|-------------------------------------------------------------------|
   C   F             C   F             C   F             Bb    G 

e|-----------------------------------------------------|
B|-5-----6-6-5----5-------6-6-5h6p5---5-----6-6-5h6p5--|
G|---5---------7----7-5-------------7---5--------------|
D|-----3----------------3-----------------3------------|
A|-----------------------------------------------------|
E|-----------------------------------------------------|
   C     D        F     G             C     D     

e|-------------------------------------|
B|--------5--6--5---8p6--5\------------|
G|---5/7-----------------------5--5----|
D|-------------------------------------|
A|-------------------------------------|
E|-------------------------------------|
     [Bb][A][G][F][G][A][C]   [C][C] 
    (    tutti in p.m.     )
VIDEO

Se il video non dovesse essere più disponibile scrivi a indytab@googlemail.com. Grazie!
COMMENTA QUESTA TABLATURA
Devi avere JavaScript attivato per poter commentare! (misura antispam)