IndyTab Logo

BETA VERSION - 321 TABS DISPONIBILI

Cerca una tablatura nel nostro archivio:

Gruppo Canzone


Elenco dei gruppi presenti su IndyTab
Lista di tutte le tablature di IndyTab
DISCLAIMER
Questa tablatura rappresenta l'interpretazione della canzone da parte dell'autore. Può essere usata per scopi di studio, insegnamento e ricerca.

La tab è liberamente riproducibile in forum, blog, siti web (ad eccezione degli archivi di tablature online) e stampabile. Non è obbligatorio ma molto gradito citare la fonte (cioè IndyTab), meglio con un link di rimando al nostro sito.
ACCORDATORE
Per accordare la tua chitarra puoi usare il nostro accordatore online
TAB REQUEST
Stai cercando una tablatura? Suggeriscila compilando il modulo sottostante!

Gruppo
Titolo
Tua Mail

(la tua mail verrà usata per ricontattarti quando la tablatura sarà online)
DELLO STESSO GRUPPO

Shandon // Opportunity

Tablatura tratta dall'album: Not So Happy To Be Sad

(clicca qui per la legenda)

    B  C#m  F#     B  C#  E  F#
e|--2---4---2---|------------------|
B|--4---5---2---|------------------|
G|--4---6---2---|--4--6------------|
D|-(4)-(6)-(4)--|--4--6---2--4-----|
A|-(2)-(4)-(4)--|--2--4---2--4-----|
E|---------(2)--|---------0--2-----|
   accordi ska     accordi punk

--------------------------------------------------------------------------


INTRO:

e|-------------------------------|
B|--55-44-55-44-55-44-5----------|
G|--44-33-44-33-44-33-4----------|
D|--22-11-22-11-22-11-2--2--4----|
A|-----------------------2--4----|
E|-----------------------0--2----|
                         E  F#

e|-------------------------------|
B|--55-44-55-44-55-44-5----------|
G|--44-33-44-33-44-33-4----------|
D|--22-11-22-11-22-11-2--2--4----|
A|-----------------------2--4----|
E|-----------------------0--2----|
                         E  F#  C#  E   



STROFA:
(accordi ska)

B                            C#m                      F#           
So I'll never known if I can seat any time all that I need

                            B  (E) (F#) (distorti)
For finding out what I will be

B                                   C#m
Then I need to start with something new

                          F#
As if it is all clear and true

                      B     (E) (F#) (distorti)
Included like eternal views



PONTE:
(accordi punk)

E        B     
Why do I hide myself

E        B
Why do I hide myself

E        B                F# (pickslide)
Why do I hide from what I do



RITORNELLO:
(accordi punk)

B             C#m
Don't wanna regret my ways

E             F#
Don't wanna regret my time

B             C#m
Don't wanna regret my waits

E            [F#]
Don't wanna regret my time



STACCO:
(accordi punk)
B C#m E F# x2



STACCO:
(ripetere intro)



STROFA:
(accordi ska)

B                              C#m
You can say to everyone you're free

                      F#
Only say things you believe

                           B  (E p.m.) (F# p.m.) 
But you cant' lose me like this

(qui poweraccordi punk)

B(p.m.)                          C#m(p.m.)
Fine you always know tou got the might

                      F#(p.m.)
To realize what you desire

                              B    (E) (F#)
You cannot change me and nevermind



PONTE:
Ripetere il ponte.



RITORNELLO:
Ripetere il ritornello due volte, l'ultimo accordo della prima
volta (F#) non fermato.



STACCO:
(accordi punk)
B C#m E F# x2



OUTRO:

Ripetere l'intro, seguito da


e|--------------------------------------------------|
B|--------------------------------------------------|
G|--6--4--3--4---------------------6----4-3--4------|
D|--------------2-----------------4-----------------|
A|--4--2--1--2--2----------------2------------------|
E|--------------0-----------------------------------|
    C#          E 
    (distorto)                    (pulito)
COMMENTA QUESTA TABLATURA
Devi avere JavaScript attivato per poter commentare! (misura antispam)