IndyTab Logo

BETA VERSION - 321 TABS DISPONIBILI

Cerca una tablatura nel nostro archivio:

Gruppo Canzone


Elenco dei gruppi presenti su IndyTab
Lista di tutte le tablature di IndyTab
DISCLAIMER
Questa tablatura rappresenta l'interpretazione della canzone da parte dell'autore. Può essere usata per scopi di studio, insegnamento e ricerca.

La tab è liberamente riproducibile in forum, blog, siti web (ad eccezione degli archivi di tablature online) e stampabile. Non è obbligatorio ma molto gradito citare la fonte (cioè IndyTab), meglio con un link di rimando al nostro sito.
ACCORDATORE
Per accordare la tua chitarra puoi usare il nostro accordatore online
TAB REQUEST
Stai cercando una tablatura? Suggeriscila compilando il modulo sottostante!

Gruppo
Titolo
Tua Mail

(la tua mail verrà usata per ricontattarti quando la tablatura sarà online)
DELLO STESSO GRUPPO

Derozer // Radio

Tablatura tratta dall'album: Alla Nostra Età

(clicca qui per la legenda)

      A    G     D    B      D     G     A 
e|------------------------|--5-----3-----5---|
B|------------------------|--7-----3-----5---|
G|---------------7--------|--7-----4-----6---|
D|----5----5-----7----9---|-(7)---(5)---(7)--|
A|----5----5-----5----9---|-(5)---(5)---(7)--|
E|----7----3----------7---|-------(3)---(5)--|
     accordi punk             parte ska

--------------------------------------------------------------------------


INTRO:
(accordi punk)

D  G  B  A  (4x, pickslide sull'ultimo accordo dell'ultimo giro)


STROFA:
(accordi punk)

D                 G  
Ehi tu che guardi solo la tv

D                 G  
e pensi di sapere tutto quanto tu

B                  G  
devi finirla di farti condizionare

B               
dall'immagine bugiarda

G                     A 
che ti confonde e poi t'inganna…


RITORNELLO:
(accordi punk)

D         
La radio… la radio

G        A 
la radio non si spegnerà

(4 volte)

B  G  B  A 
         
             B  G  B  [A] (A) (A) (A) (A)
non si spegnerà 


PONTE:
(accordi punk)

D  G  B  A  (4x)


SOLO:
e|---------------------------------------------|
B|-----7-8-7-----7-8-7-----7-8-7-----8-7-------|
G|---7---------7---------7---------7-------2x--|
D|---------------------------------------------|
A|---------------------------------------------|
E|---------------------------------------------|

e|---------------------------------------------|
B|------7-8-7-10-7-8-7----------7-8-7----------|
G|----7------------------4x---7---------8x-----|
D|---------------------------------------------|
A|---------------------------------------------|
E|---------------------------------------------|
Accordi sotto il solo: D  G  A  (suonati ska distorto)


STROFA:
come sopra


RITORNELLO:
(accordi punk)

D         
La radio… la radio

G        A 
la radio non si spegnerà

(4 volte)

B  G  B  A 
         
             B  G  B  A 
non si spegnerà 


ULTIMO RITORNELLO:
(accordi punk)

D         
La radio… la radio

G        A            
la radio non si spegnerà

(4 volte)

D [G] [A] D..
COMMENTA QUESTA TABLATURA
Devi avere JavaScript attivato per poter commentare! (misura antispam)