IndyTab Logo

BETA VERSION - 321 TABS DISPONIBILI

Cerca una tablatura nel nostro archivio:

Gruppo Canzone


Elenco dei gruppi presenti su IndyTab
Lista di tutte le tablature di IndyTab
DISCLAIMER
Questa tablatura rappresenta l'interpretazione della canzone da parte dell'autore. Può essere usata per scopi di studio, insegnamento e ricerca.

La tab è liberamente riproducibile in forum, blog, siti web (ad eccezione degli archivi di tablature online) e stampabile. Non è obbligatorio ma molto gradito citare la fonte (cioè IndyTab), meglio con un link di rimando al nostro sito.
ACCORDATORE
Per accordare la tua chitarra puoi usare il nostro accordatore online
TAB REQUEST
Stai cercando una tablatura? Suggeriscila compilando il modulo sottostante!

Gruppo
Titolo
Tua Mail

(la tua mail verrà usata per ricontattarti quando la tablatura sarà online)
DELLO STESSO GRUPPO

Punkreas // Voglio Armarmi

Tablatura tratta dall'album: Pelle

(clicca qui per la legenda)

(clicca qui per il video)

    G  C  B  D
e|---------------|
B|---------------|
G|-----5--4--7---|
D|--5--5--4--7---|
A|--5--3--2--5---|
E|--3------------|


--------------------------------------------------------------------------


INTRO:

e|----------------------------------------------------------------------|
B|-----------------------------------------------------7-7--------------|
G|------7---9-7---------7---9-7-----------7---9-7----9-----9-7-9--7-----|
D|-/9-9---9--------/9-9---9-----5-7--/9-9---9---------------------------|
A|----------------------------------------------------------------------|
E|----------------------------------------------------------------------|
   G        C      G        C        G        C        B       D

e|----------------------------------------------------------------------|
B|------------------------------------------------------7-------7-------|
G|------7---9-7------------7---9-7---------7---9-7----9---9-7-9---9-7-9-|
D|-/9-9---9------5-7--/9-9---9--------/9-9---9--------------------------|
A|----------------------------------------------------------------------|
E|----------------------------------------------------------------------|
   G        C         G        C      G        C        B       D



STROFA:

G(p.m.)       C(p.m.)       G(p.m.)        C(p.m.)
che invidia andare a scuola con in tasca una pistola

G(p.m.)  C(p.m.)         B            D
che scivoli dal fianco e che s’infili sotto al banco

e|--------------------------------------------------------|
B|--------------------------------------------------------|
G|--7/9-7~--------------------7/9-7~----------------------|
D|--------------------------------------------------------|
A|--------------------------------------------------------|
E|--------------------------------------------------------|
        G(p.m.)    C(p.m.)        G(p.m.)      C(p.m.)
        nell’ora d’intervallo     provocare un bel macello

e|--------------------------------------------------------|
B|--------------------------------------------------------|
G|--7/9-7~------------------------------------------------|
D|--------------------------------------------------------|
A|--------------------------------------------------------|
E|--------------------------------------------------------|
        G(p.m.)   C(p.m.)   B           D
        altro che merendine lì si spara sul bidello

G            C        G           C
gli eroi son Topolino con Pippo e l’Uomo Ragno

G            C             B   D
ma il mito è l’ispettore e la 44 Magnum

G      C          G          C
legittima difesa, il colpo accidentale

G            C           B          D
son storie ormai passate e rientran nel normale



PONTE:

C                        D
mamma mia le cento lire adesso devi darmi

e|-----------------------------------------|
B|-----------------------------------------|
G|-----------------------------------------|
D|-----------------------------------------|
A|-----------------------------------------|
E|--------------------------0-1-2-3--4-5---|
   C
   parto per l’America perché



RITORNELLO:

e|--------------------------------------------------------------|
B|--------------------------------------------------------------|
G|------------7---9-7------------7---9-7---------------7---9-7--|
D|-------/9-9---9-----------/9-9---9-----5--7-----/9-9---9------|
A|--------------------------------------------------------------|
E|--------------------------------------------------------------|
         G        C         G        C            G        C
voglio armarmi       con le armi         voglio armarmi

e|-------------------|
B|----7-7------------|
G|--9-----9-7-9--7---|
D|-------------------|
A|-------------------|
E|-------------------|
      B      D

e|----------------------------------------------------------------------|
B|------------------------------------------------------7-------7-------|
G|------7---9-7------------7---9-7---------7---9-7----9---9-7-9---9-7-9-|
D|-/9-9---9------5-7--/9-9---9--------/9-9---9--------------------------|
A|----------------------------------------------------------------------|
E|----------------------------------------------------------------------|
   G        C         G        C      G        C        B       D



STROFA:

G(p.m.)    C(p.m.)    G(p.m.)      C(p.m.)
non si può bere birra tanto meno una cannetta

G(p.m.)   C(p.m.)  B            D
ma sei considerato se sai usare la Beretta

G(p.m.) C(p.m.)        G(p.m.)   C(p.m.)
la libertà è una statua con cura fu innalzata

G(p.m.)  C(p.m.)    B          D
tentando di nascondere un’America malata

G          C           G           C
ma il loro pezzo forte lo è e lo è sempre stato

G       C        B          D
la pena capitale in assenza di reato

G           C            G     C
puoi scegliere lo stato, modalità e anche l’uso

G             C         B           D
stai certo il risultato non ti lascerà deluso



PONTE:
Ripetere il PONTE.



RITORNELLO:

e|--------------------------------------------------------------|
B|--------------------------------------------------------------|
G|------------7---9-7------------7---9-7---------------7---9-7--|
D|-------/9-9---9-----------/9-9---9-----5--7-----/9-9---9------|
A|--------------------------------------------------------------|
E|--------------------------------------------------------------|
         G        C         G        C            G        C
voglio armarmi       con le armi         voglio armarmi

e|---------------------|
B|----7-------7--------|
G|--9---9-7-9---9-7-9--|
D|---------------------|
A|---------------------|
E|---------------------|
      B       D



SOLO:

e|------------------------------------------|
B|--------------------------12--------------|
G|--/14-14-14-12------12-14----14-12-12-----|
D|-----------------14-----------------------|
A|------------------------------------------|
E|------------------------------------------|
     G     C          G        C         

e|------------------------------------------|
B|--------------------7---------------------|
G|--14-12-9-7-----7-9---9p7h9p7h9p7h9p7--7--|
D|--------------9---------------------------|
A|------------------------------------------|
E|------------------------------------------|
    G     C       B     D



STACCO:
(palm muted)

G+[G]  C+[C]  B+[B]  D+(D.. [D] [D][D])

G       C      B       D       
c’è l’NBA, l’NFL, l’NCAA,

e|----------------------------------------------------------------|
B|----------------------------------------------------------------|
G|-------7---9-7--------7---9-7--------7---9-7--------7---9-7-9-7-|
D|---9-9---9--------9-9---9--------9-9---9--------9-9---9---------|
A|----------------------------------------------------------------|
E|----------------------------------------------------------------|
     G              C              B              D
la CNN,        la TWA, col KU KLUX KLAN  soltanto guai l’FBI



PONTE:

C                           D
hai provato a darmi un pizzicotto per svegliarmi

e|---------------------------------------------|
B|---------------------------------------------|
G|---------------------------------------------|
D|---------------------------------------------|
A|---------------------------------------------|
E|------------------------------0-1-2-3---4-5--|
   C
   spero che sia un incubo perché



RITORNELLO:

e|---------------------------------------------------------------|
B|---------------------------------------------------------------|
G|------------7---9-7-------------7---9-7---------------7---9-7--|
D|-------/9-9---9-----5---7--/9-9---9--------------/9-9---9------|
A|---------------------------------------------------------------|
E|---------------------------------------------------------------|
          G       C          G        C             G       C
voglio armarmi        con le armi          voglio armarmi

e|--------------------|
B|----7-------7-------|
G|--9---9-7-9---9-7-9-|
D|--------------------|
A|--------------------|
E|--------------------|
      B     D


PONTE FINALE:

C                             D
tutti hanno un cannone che li fa sentir signori

e|-------------------------------------------------------|
B|-------------------------------------------------------|
G|-------------------------------------------------------|
D|-------------------------------------------------------|
A|-------------------------------------------------------|
E|------------------------------0---1---2---3--4--5------|
   C                                                  [G]
   ma l’idea che mi son fatto è che son tutti fuori
VIDEO

Se il video non dovesse essere più disponibile scrivi a indytab@googlemail.com. Grazie!
COMMENTA QUESTA TABLATURA
Devi avere JavaScript attivato per poter commentare! (misura antispam)