IndyTab Logo

BETA VERSION - 321 TABS DISPONIBILI

Cerca una tablatura nel nostro archivio:

Gruppo Canzone


Elenco dei gruppi presenti su IndyTab
Lista di tutte le tablature di IndyTab
DISCLAIMER
Questa tablatura rappresenta l'interpretazione della canzone da parte dell'autore. Può essere usata per scopi di studio, insegnamento e ricerca.

La tab è liberamente riproducibile in forum, blog, siti web (ad eccezione degli archivi di tablature online) e stampabile. Non è obbligatorio ma molto gradito citare la fonte (cioè IndyTab), meglio con un link di rimando al nostro sito.
ACCORDATORE
Per accordare la tua chitarra puoi usare il nostro accordatore online
TAB REQUEST
Stai cercando una tablatura? Suggeriscila compilando il modulo sottostante!

Gruppo
Titolo
Tua Mail

(la tua mail verrà usata per ricontattarti quando la tablatura sarà online)
DELLO STESSO GRUPPO

Peter Punk // Giuseppe

Tablatura tratta dall'album: Peter Punk

(clicca qui per la legenda)

(clicca qui per il video)

    Bb F(I) G(III)  Eb    F   G   Eb/D   C   D 
e|----------------------------------------------|
B|----------------------------------------------|
G|------------------8----10---12----8----5---7--|
D|--8---3-----5-----8----10---12----8----5---7--|
A|--8---3-----5-----6-----8---10----5----3---5--|
E|--6---1-----3---------------------------------|


--------------------------------------------------------------------------


RIFF:
e|-----------------------------------------|
B|--4-3-----44-3------4-3-----44-3---------|
G|------5-3------5-3------5-3------5-3-----|
D|-----------------------------------------|
A|-----------------------------------------|
E|-----------------------------------------|
    Bb..              F(I)..

e|-----------------------------------------|
B|--4-3-----44-3------4-3-----3-4-6-4-3----|
G|------5-3------5-3------5-3--------------|
D|-----------------------------------------|
A|-----------------------------------------|
E|-----------------------------------------|
    G(III)..          Eb..    F..                 



INTRO:

e|-------6-------|
B|---------6-----|
G|--3~-------3~--|
D|---------------|
A|---------------|
E|---------------|

e|-----------------------------------------|
B|--4-3-----44-3------4-3-----44-3---------|
G|------5-3------5-3------5-3------5-3-----|
D|-----------------------------------------|
A|-----------------------------------------|
E|-----------------------------------------|


Ripetere il RIFF due volte.



STROFA:

Bb
Tutta la serata a guardarla

F(p.m.)
Pensieri di colore rosso

G                         Eb(p.m.)
Mi ronzavano per la testa ma

F
Io le piacerò?

Bb
Questo non lo so

F(p.m.)
Non è per l’alito

G 
Ma se alzo il culo

Eb(p.m.) Eb/D(p.m.) [C]
Al più presto lo saprò



RITORNELLO:

                Bb             F          G          Eb    F
Lei mi ha detto noooooo perché no? Perché no? Perché no???

F      Bb         F          G          Eb       F
Perchè no? perché no? Perché no? Perché no??? Uooo..



RIFF:
Ripetere il RIFF una volta.



STROFA:

Bb
Mi faccio di videocassette

F(p.m.)
Giornaletti a tutto spiano

G 
E giù di mano

Eb(p.m.)         F
Così mi passa il tempo!

Bb
Non è ciò che vorrei

F(p.m.)                          G 
Ho bisogno di qualcuno accanto a me da poter amare

Eb(p.m.) Eb/D(p.m.) C(p.m.) (D)(C)   Bb
Basta    che        non mi   dica di no!



RITORNELLO:
(una chitarra con pennate lasciate andare)

                Bb             F          G          Eb    F
Lei mi ha detto noooooo perché no? Perché no? Perché no???

e|----------------------------------------------------------------|
B|----------------------------------------------------------------|
G|-----------------------------------------8---7------------------|
D|--------------------------------------------------10--8---8..---|
A|-----------------------------------------6---5------------8..---|
E|--------------------------------------------------8---6---6..---|
   F      Bb         F          G          Eb       C       Bb(p.m.)
   Perchè no? perché no? Perché no? Perché no??? Uooo    Uooo




STACCO:

(palm muted)

Bb F G+G.. Eb F
     
e|--------------------------------------------------------------------|
B|--------------------------------------------------------------------|
G|--------------------------------------------------------------------|
D|------10-8-10/12-10~---10-8-7-8~---10-8-10-12-13-12-10-12-10-8------|
A|--------------------------------------------------------------------|
E|--6~----------------------------------------------------------------|
    Bb             F            G            Eb       F       (Bb..)

(da qui accordi normali)

e|----------------------------------------------10-11-11/13-13--11-10-|
B|-11~--13-11-13/15-13~--13-11-10-11~--13-11-13-----------------------|
G|--------------------------------------------------------------------|
D|--------------------------------------------------------------------|
A|--------------------------------------------------------------------|
E|--------------------------------------------------------------------|
   Bb..             F..           G..           Eb..        F.. pick-slide


(parte il solo)

e|---------------------------------------------------------------|
B|---------------------------------------------------------------|
G|-------------------10------------------------------------------|
D|---------8---10/12----13-12-10-8--8-8\7---------------10-8-7---|
A|--8-8-10--------------------------------10-8-8------8----------|
E|-------------------------------------------------10------------|
    Bb                                    F           

e|--------------------------------------------------|
B|--------------------------------------------------|
G|--8/10--8-7h8-8p7------------------7--------------|
D|------------------10-8--------8-10---10---8-8-10--|
A|-------------------------8-10---------------------|
E|--------------------------------------------------|
                G                                  

e|--------------------------------------|
B|-----------------------11-------------|
G|--7---------7-------------10----------|
D|-------10-----10-8-----------8-----8\-|
A|--------------------------------------|
E|--------------------------------------|
    Eb.. F..       Eb..              Eb\
VIDEO

Se il video non dovesse essere più disponibile scrivi a indytab@googlemail.com. Grazie!
COMMENTI
3/10/10 20:51, yabadas:
Il primo accordo è LA# poi invece del MI prende il RE# quando dice "per la testa ma" del resto è tutto esatto.

5/11/10 23:35, Alberto (staff IndyTab):
Se guardi la legenda vedi che la "b" sta per bemolle, ovvero mezzo tono più sotto. Quindi LA#=Bb e RE#=MIb. Puoi in ogni caso controllare sempre gli accordi usati all'inizio della canzone.
Grazie cmq della segnalazione,
Ciao!

COMMENTA QUESTA TABLATURA
Devi avere JavaScript attivato per poter commentare! (misura antispam)