IndyTab Logo

BETA VERSION - 321 TABS DISPONIBILI

Cerca una tablatura nel nostro archivio:

Gruppo Canzone


Elenco dei gruppi presenti su IndyTab
Lista di tutte le tablature di IndyTab
DISCLAIMER
Questa tablatura rappresenta l'interpretazione della canzone da parte dell'autore. Può essere usata per scopi di studio, insegnamento e ricerca.

La tab è liberamente riproducibile in forum, blog, siti web (ad eccezione degli archivi di tablature online) e stampabile. Non è obbligatorio ma molto gradito citare la fonte (cioè IndyTab), meglio con un link di rimando al nostro sito.
ACCORDATORE
Per accordare la tua chitarra puoi usare il nostro accordatore online
TAB REQUEST
Stai cercando una tablatura? Suggeriscila compilando il modulo sottostante!

Gruppo
Titolo
Tua Mail

(la tua mail verrà usata per ricontattarti quando la tablatura sarà online)
DELLO STESSO GRUPPO

Peter Punk // Via Da Qui

Tablatura tratta dall'album: Peter Punk

(clicca qui per la legenda)

   E(0) E Eb  C#  B  A  G#  
e|--------------------------|
B|--------------------------|
G|------9--8----------------|
D|--2---9--8--11--9--7--6---|
A|--2---7--6--11--9--7--6---|
E|--0----------9--7--5--4---|


--------------------------------------------------------------------------


INTRO:
E(0)..
(pickslide)

e|-----------------------------------------------|
B|-----------------------------------------------|
G|--------------------------9-11--9----11-13-11--|
D|--9-11--9-----6--7--6-----7--7--7-----9--9--9--|
A|--7--7--7-----4--4--4--------------------------|
E|-----------------------------------------------|
    E(0)..      C#          A          B

e|-----------------------------------------------|
B|-----------------------------------------------|
G|--------------------------9-11--9----11--------|
D|--9-11--9-----6--7--6-----7--7--7-----9--------|
A|--7--7--7-----4--4--4--------------------------|
E|-----------------------------------------------|
    E(0)        C#          A         [B]



STROFA:

                     E(0)            (B)   C#
Voglio andare via da qui, raggiungere un’altra terra

A                       B
dove non ci sono più né stragi né guerra,

E(0)          (B)   C#
voglio salire sul primo treno

A                     B       (E) (Eb)
che mi porti verso un mondo migliore



PONTE:

C#          G#            A                    B     (E) (Eb)         
Sono andato alla stazione solo per chiedere un’informazione

C#       G#             A       B(p.m.)
Visto il treno ho detto portami via!



RITORNELLO:

E B C#  A      B(p.m.)
Uooohhh via da qui

E B C#  A      B(p.m.)
Uooohhh via da qui



STROFA:

E(0)..
Sento una voce che insiste con me ma dove vai?

                                              (E) (Eb)
E intanto penso dove dormirò soldi non ne ho.



PONTE:
(ripetere ponte)



RITORNELLO:

E B C#  A      B(p.m.)
Uooohhh via da qui

E B C#  A(a colpi) B(a colpi)
Uooohhh            via da qui



STACCO:
(due volte)
(note * in palm muted)
e|---------------------------------------|
B|---------------------------------------|
G|---------------------------------------|
D|---------11-9-----11-9-----11-9-11-9---|
A|-7-7-7-7------7-7------7-7-------------|
E|-*-*-*-*------*-*------*-*-------------|
   E(0)(p.m.)

e|---------------------------------------|
B|---------------------------------------|
G|---------------------------------------|
D|---------7-6-----7-6-----7-6-7-6-------|
A|-4-4-4-4-----4-4-----4-4---------------|
E|-*-*-*-*-----*-*-----*-*---------------|
   C#(p.m.)

e|---------------------------------------|
B|---------------------------------------|
G|---------11-9-----11-9-----11-9-11-9---|
D|-7-7-7-7------7-7------7-7-------------|
A|-*-*-*-*------*-*------*-*-------------|
E|---------------------------------------|
   A(p.m.)

e|-----------------------------------------|
B|-----------------------------------------|
G|---------13-11-----13-11-----13-11-13-11-|
D|-9-9-9-9-------9-9-------9-9-------------|
A|-*-*-*-*-------*-*-------*-*-------------|
E|-----------------------------------------|
 | B(p.m.)                                 |
 |                                         |
e|--------- seconda chitarra --------------|
B|-----------------------------------------|
G|-------------------4-----6---8-----9-----|
D|-----------------------------------------|
A|-------------------2-----4---6-----7-----|
E|-----------------------------------------|



PONTE:
(ripetere ponte)



RITORNELLO:

E B C#  A      B
Uooohhh via da qui

E B C#  A      B
Uooohhh via da qui

E B C#  A      B
Uooohhh via da qui

E B C#  A..    B..  E(0)..
Uooohhh via    da   qui



OUTRO:
(ripetere lo stacco una volta con ritmica: [E(0)] C#.. A.. B.. E(0).. )
COMMENTA QUESTA TABLATURA
Devi avere JavaScript attivato per poter commentare! (misura antispam)