IndyTab Logo

BETA VERSION - 321 TABS DISPONIBILI

Cerca una tablatura nel nostro archivio:

Gruppo Canzone


Elenco dei gruppi presenti su IndyTab
Lista di tutte le tablature di IndyTab
DISCLAIMER
Questa tablatura rappresenta l'interpretazione della canzone da parte dell'autore. Può essere usata per scopi di studio, insegnamento e ricerca.

La tab è liberamente riproducibile in forum, blog, siti web (ad eccezione degli archivi di tablature online) e stampabile. Non è obbligatorio ma molto gradito citare la fonte (cioè IndyTab), meglio con un link di rimando al nostro sito.
ACCORDATORE
Per accordare la tua chitarra puoi usare il nostro accordatore online
TAB REQUEST
Stai cercando una tablatura? Suggeriscila compilando il modulo sottostante!

Gruppo
Titolo
Tua Mail

(la tua mail verrà usata per ricontattarti quando la tablatura sarà online)
DELLO STESSO GRUPPO

Derozer // Straniero

Tablatura tratta dall'album: Chiusi Dentro

(clicca qui per la legenda)

(clicca qui per il video)

    B  G  D  A  E  F# G(X)
e|-------------------------|
B|-------------------------|
G|--------7-----9------12--|
D|--9--5--7--7--9--4---12--|
A|--9--5--5--7--7--4---10--|
E|--7--3-----5-----2-------|


--------------------------------------------------------------------------


INTRO:

e|-------------------------------------------------------------------|
B|-------------------------------------------------------------------|
G|----------6--7--------------6--7-------------6--7-------------6--7-|
D|-7-9---------------7-9--------------4-5--------------4-5-----------|x2
A|----------4--5--------------4--5-------------4--5-------------4--5-|
E|-5-7---------------5-7--------------2-3--------------2-3-----------|
   B(p.m.)B..        B(p.m.)B..       G(p.m.)G..       G(p.m.)G..


e|---------------------------------------------------------------------|
B|---------------------------------------------------------------------|
G|----------6--7--------------6--7-------------6--7-------------6--7---|
D|-7-9---------------7-9--------------4-5--------------4-5-----------7-|
A|----------4--5--------------4--5-------------4--5-------------4--5---|
E|-5-7---------------5-7--------------2-3--------------2-3-----------5-|
     B                                  G       




STROFA:

B
Nuovo viaggio nuova situazione

(A) B
    cambiano le facce e le persone

(F#) G
     nuove le strade nuove le sensazioni

(F#) G
     esplodono i colori e le emozioni

(A) B
    Nella valigia non porto ricordi

(A) B
    non c'è niente di buono da salvare

(F#) G
     ma c'è una cosa che mi porta avanti

(F#) G
     e la gran voglia di ricominciare



PONTE:

D              A        B
Spero che qualcuno capirà

                     G
che io sono un uomo vero

                  F#   [F#]
e non mi giudicherà... à



RITORNELLO:

                     B    G(X)
Per sempre uno straniero

                  D                  E
per sempre prigioniero in questa città

      B    G(X)
straniero

                 D            E   
per sempre senza la mia identità



RIFF:

e|-----------------------------------------------------|
B|-----------------------------------------------------|
G|--6-7-----------6-7-----------6-7-----------6-7------|
D|------7-9-----------7-9-----------4-5-----------4-5--|
A|--4-5-----------4-5-----------4-5-----------4-5------|
E|------5-7-----------5-7-----------2-3-----------2-3--|
          B                           G              

e|-----------------------------------------------------------------|
B|-----------------------------------------------------------------|
G|--6-7-----------6-7-----------6-7-----------6-7-----------6-7----|
D|------7-9-----------7-9-----------4-5-----------4-5-----------7--|
A|--4-5-----------4-5-----------4-5-----------4-5-----------4-5----|
E|------5-7-----------5-7-----------2-3-----------2-3-----------5--|
          B                           G              

STROFA:

B..
Nuovo viaggio nuova situazione

(A) B..
    e cambiano le facce e le persone

(F#) G..
     nuove le strade nuove le sensazioni

(F#) G..
     esplodono i colori e le emozioni

(A) B
    La nuova sfida sta per cominciare

(A) B
    non sarà facile fargli capire

(F#) G
     che non son io il nemico da cacciare

(F#) G
     o il pericolo da cui scappare



PONTE:
(ripetere ponte)



RITORNELLO:
(ripetere il ritornello)



OUTRO:
                     B    G(X)
Per sempre uno straniero  straniero

D         E
straniero straniero

B          G(X)
straniero  straniero

D         E
straniero straniero

e|------------|
B|------------|
G|--6-7-------|
D|------7-9---|
A|--4-5-------|
E|------5-7---|
          B..
VIDEO

Se il video non dovesse essere più disponibile scrivi a indytab@googlemail.com. Grazie!
COMMENTI
15/4/10 16:37, Gabo:
Grazie tante!!!! :)

COMMENTA QUESTA TABLATURA
Devi avere JavaScript attivato per poter commentare! (misura antispam)