IndyTab Logo

BETA VERSION - 321 TABS DISPONIBILI

Cerca una tablatura nel nostro archivio:

Gruppo Canzone


Elenco dei gruppi presenti su IndyTab
Lista di tutte le tablature di IndyTab
DISCLAIMER
Questa tablatura rappresenta l'interpretazione della canzone da parte dell'autore. Può essere usata per scopi di studio, insegnamento e ricerca.

La tab è liberamente riproducibile in forum, blog, siti web (ad eccezione degli archivi di tablature online) e stampabile. Non è obbligatorio ma molto gradito citare la fonte (cioè IndyTab), meglio con un link di rimando al nostro sito.
ACCORDATORE
Per accordare la tua chitarra puoi usare il nostro accordatore online
TAB REQUEST
Stai cercando una tablatura? Suggeriscila compilando il modulo sottostante!

Gruppo
Titolo
Tua Mail

(la tua mail verrà usata per ricontattarti quando la tablatura sarà online)
DELLO STESSO GRUPPO

Derozer // Branca Day

Tablatura tratta dall'album: Alla Nostra Età

(clicca qui per la legenda)

(clicca qui per il video)

     A    B    G     D    E    C    G(X)  
e|----------------------------------------|
B|----------------------------------------|
G|--------4----------7---------5----12----|
D|---7----4----5-----7----2----5----12----|
A|---7----2----5-----5----2----3----10----|
E|---5---------3----------0---------------|


--------------------------------------------------------------------------


INTRO:

e|-----------------------------------------------------------|
B|----12-10-12----12-10-12-13--------------------------------|
G|-------------12-------------14p12-------11-14-12-11--------|
D|----------------------------------14-12--------------------|
A|-----------------------------------------------------------|
E|-----------------------------------------------------------|
   G(X)                    C           D        (C)  (D)

e|-------------------------------12-----------------------|
B|----12-10-12----12-10-12-13-15----15-13-12-13-12--------|
G|-12----------12-----------------------------------------|
D|--------------------------------------------------------|
A|--------------------------------------------------------|
E|--------------------------------------------------------|
   G(X)                    C        D        (C)  (D)

e|-----------------------------------------------------------|
B|----12-10-12----12-10-12-13--------------------------------|
G|-12----------12-------------14p12-------11-14-12-11--------|
D|----------------------------------14-12--------------------|
A|-----------------------------------------------------------|
E|-----------------------------------------------------------|
   G(X)                    C           D        (C)  (D)

e|-------------------------------12-----------------------|
B|----12-10-12----12-10-12-13-15----15-13-12--------------|
G|-12----------12-----------------------------------------|
D|--------------------------------------------------------|
A|--------------------------------------------------------|
E|--------------------------------------------------------|
   G(X)                    C        D      (C)  (D)  


STROFA:

G(X)                    C     D    (C)  (D)              
Di giorno io non so chi sei

G(X)                           C     D    (C)  (D)
non mi ricordo nemmeno il tuo nome

G(X)                          C     D    (C)  (D)
non so se sei vera o sei fantasia

G(X)                          C          D    (C)  (D)
e non mi dispiace che tu non sia qui con me


PONTE:

G                         B                        E 
Ma quando il giorno se ne va, quando mi ritrovo al bar

                  C(p.m.)
con una bottiglia vuota in mano

G                     B                         E 
all'improvviso arrivi tu, un Branca Menta butto giù

                 C          [D]
io ti amo sempre più..  uoooho


RITORNELLO:

                      G               C 
Ti amo quando sono sbronzo… ti amo di più

                   E                 A 
quando io sono ubriaco… mi piaci di più

                      G               C 
ti amo quando sono sbronzo… ti amo di più

                   E                 A 
quando io sono ubriaco… mi piaci di più


SOLO:
e|-----------------------------------------------------------------------|
B|---------------------------------------------------------5-------------|
G|--4---4---4---4-5----------------------4---4---4---4-5-7---7-5--4-5-4--|
D|-5--7---5---7-----7p5-----4-7-5-4----5---7---5---7---------------------|
A|----------------------7-5----------------------------------------------|
E|-----------------------------------------------------------------------|
   G              C       D  (C)  (D)  G               C     D    (C)(D)

e|-----------------------------------------------------------------------|
B|----------------------------------------------------------5------------|
G|----4---4---4---4-5---------------------4---4---4---4-5-7---7--5-4-----|
D|--5---7---5---7-----7p5-----4-7-5-4---5---7---5---7--------------------|
A|------------------------7-5--------------------------------------------|
E|-----------------------------------------------------------------------|
   G              C       D  (C)  (D)   G               C     D  (C)(D)


STROFA: come la prima ma con accordi in palm muted


STROFA: come la prima


PONTE: come il primo


RITORNELLO: come il primo


CORO FINALE:

G                       C        D    (C)  (D)
Oh oh oh oh oh oh oh oh oh oh oh oh oh oh oh oh      (x4)


OUTRO:
          G..
who ho ho oh..
VIDEO

Se il video non dovesse essere più disponibile scrivi a indytab@googlemail.com. Grazie!
COMMENTA QUESTA TABLATURA
Devi avere JavaScript attivato per poter commentare! (misura antispam)