IndyTab Logo

BETA VERSION - 321 TABS DISPONIBILI

Cerca una tablatura nel nostro archivio:

Gruppo Canzone


Elenco dei gruppi presenti su IndyTab
Lista di tutte le tablature di IndyTab
DISCLAIMER
Questa tablatura rappresenta l'interpretazione della canzone da parte dell'autore. Può essere usata per scopi di studio, insegnamento e ricerca.

La tab è liberamente riproducibile in forum, blog, siti web (ad eccezione degli archivi di tablature online) e stampabile. Non è obbligatorio ma molto gradito citare la fonte (cioè IndyTab), meglio con un link di rimando al nostro sito.
ACCORDATORE
Per accordare la tua chitarra puoi usare il nostro accordatore online
TAB REQUEST
Stai cercando una tablatura? Suggeriscila compilando il modulo sottostante!

Gruppo
Titolo
Tua Mail

(la tua mail verrà usata per ricontattarti quando la tablatura sarà online)
DELLO STESSO GRUPPO

Sun Eats Hours // I Won't Have You

Tablatura tratta dall'album: Don't Waste Time

(clicca qui per la legenda)

     G   G/F#   E    C    D    E(VII)   G*   G/F#*
e|--------------------------------------------------|
B|--------------------------------------8-----8-----|
G|-------------------5----7------9------7-----7-----|
D|---5-----5----2----5----7------9------5-----4-----|
A|---5-----5----2----3----5------7------------------|
E|---3-----2----0-----------------------------------|


--------------------------------------------------------------------------


INTRO:

G.. G/F#.. E.. C..

               pickslide
G.. G/F#.. E.. C..



STROFA:

       G
All is done,

       G/F#
All is planned,

          E
I thought I knew you,

        C               G
Life, I thought, I understood.

                    G/F#                E
I wanted to be held and told that I was loved,

                          C
Heat and passion drive us to be kind and loving.

D                          C
You are taken and I cannot take it anymore;

      G                 D
All I do is wrong and I don't understand

    C                      D          [D]
How I must act to have you in my arms.



RITORNELLO:

G                      
Fly, fly away into the heat

    D
The sky is blue and offers freedom,

  C
I want to be left alone,

D                             G
Isolated from the rest of the world.


Leave me alone,

       D
You do not, cannot, understand me;

E(VIII)
go back to her,

C               D
It is right for you.



STROFA:

G..
I'm not important,

    G/F#..                      E(VII)(p.m.)
But I have helped you with no reward;

                      
I help those who need me,

C(p.m.)            D(p.m.)        G(p.m.)   
But they take more than I want to give.

              G/F#(p.m.) 
They suck the life out of my soul

    C
The world is upside down,

            D                 D..
Those who deserve do not get.



RITORNELLO:
(come sopra)



SOLO:
(suonare più volte le note segnate con .)

    .        .          .        .
e|-----------------------------------------------------|
B|--8--12-13-15---13-12-13---12-15---13-13--12-13-12---|
G|-----------------------------------------------------|
D|--5---9-10-12---10--9-10----9-12---10-10--9--10-9----|
A|-----------------------------------------------------|
E|-----------------------------------------------------|
    G        D          C       D


    .        .                    .        .   .    .
e|-----------------------------------------------------------|
B|--8--12-13-15--17-17--15-13-12-13--------12--15---13--12---|
G|-----------------------------------------------------------|
D|--5---9-10-12--14-14--12-10--9-10---------9--12---10--9----|
A|-----------------------------------------------------------|
E|-----------------------------------------------------------|
    G        D                    E(VIII)      C    D 



STACCO:

e|--------------------------------------------------------------------|
B|---------------5--5--/8-8-8\-------------------------7--7--/8-8-8\--|
G|--------------------------------------------------------------------|
D|--------------------------------------------------------------------|
A|--------------------------------------------------------------------|
E|--------------------------------------------------------------------|
   [G*] [G*][G*]                [G/F#*] [G/F#*][G/F#*]

e|---------------------------------------------------------------|
B|---------------------------------------------------------------|
G|----------------------------7-7--5-5--4------------7--5--4-----|
D|---------------------------------------------------------------|
A|---------------------------------------------------5--3--2-----|
E|---------------------------------------------------------------|
   [E(VII)] [E(VII)][E(VII)]                 C
                             

e|---------------------------------------------------|
B|---------5--5--/8-8-8\--------------7--7--/8-8-8\--|
G|---------------------------------------------------|
D|---------------------------------------------------|
A|---------------------------------------------------|
E|---------------------------------------------------|
    G*                      G/F#*


e|---------------------------------------------------|
B|---------------------------------------------------|
G|----------7-7-7--5-5--4-----------7----5----4------|
D|-------------------------------------5pm--5pm------|
A|---------------------------------------------------|
E|---------------------------------------------------|
    E(VII)                  C      <-- FILL1 --->



PONTE:

(accordi con ritmo dello stacco, FILL1 dallo stacco)

G*
Please hold me

            G/F#*                  E
And tell me that you need me to go on,

      C  FILL1
To go on

G*                              G/F#*
That you cannot breathe without me,

           E                 C
You cannot speak, you cannot see


(ora accordi pieni)

G*          G/F#*                E(VII)
That I am a drug which makes you mad

          C
And opens up your heart.

G*           G/F#*             E(VII)
I have never felt such a sharp pain,

            C
I need you, but I won't have you



RITORNELLO:
(come sopra)



OUTRO:
(ripetere più volte ogni ottava)

e|------------------------------------------------------|
B|--13-12-13-15-13-12-13-15-13-12-13-15-13-12-13-12-10--|
G|------------------------------------------------------|
D|--10--9-10-12-10--9-10-12-10--9-10-12-10--9-10--9--7--|
A|------------------------------------------------------|
E|------------------------------------------------------|
    G           D           C           D

e|------------------------------------------------------|
B|--13-12-13-15-13-12-13-15-17-15-13-12-15-13-12-13-12--|
G|------------------------------------------------------|
D|--10--9-10-12-10--9-10-12-14-12-10--9-12-10--9-10--9--|
A|------------------------------------------------------|
E|------------------------------------------------------|
    G           D           E(VII)      C      D

e|--------------------------------------------------|
B|--------------------------------------------------|
G|--------------------------------------------------|
D|-12--12-12--12--12-12--12--12-12--12-12-----------|
A|-10--10-10--10--10-10--10--10-10--10--9-----------|
E|--------------------------------------------------|
COMMENTA QUESTA TABLATURA
Devi avere JavaScript attivato per poter commentare! (misura antispam)