IndyTab Logo

BETA VERSION - 321 TABS DISPONIBILI

Cerca una tablatura nel nostro archivio:

Gruppo Canzone


Elenco dei gruppi presenti su IndyTab
Lista di tutte le tablature di IndyTab
DISCLAIMER
Questa tablatura rappresenta l'interpretazione della canzone da parte dell'autore. Può essere usata per scopi di studio, insegnamento e ricerca.

La tab è liberamente riproducibile in forum, blog, siti web (ad eccezione degli archivi di tablature online) e stampabile. Non è obbligatorio ma molto gradito citare la fonte (cioè IndyTab), meglio con un link di rimando al nostro sito.
ACCORDATORE
Per accordare la tua chitarra puoi usare il nostro accordatore online
TAB REQUEST
Stai cercando una tablatura? Suggeriscila compilando il modulo sottostante!

Gruppo
Titolo
Tua Mail

(la tua mail verrà usata per ricontattarti quando la tablatura sarà online)
DELLO STESSO GRUPPO

Los Fastidios // Tempi Nuovi

Tablatura tratta dall'album: Contiamo Su Di Voi!

(clicca qui per la legenda)

(clicca qui per il video)

     A    G    D 
e|-----------------|
B|-----------------|
G|-------------7---|
D|---7----5----7---|
A|---7----5----5---|
E|---5----3--------|


--------------------------------------------------------------------------


INTRO:

D..  A..  G.. 
OO   OO   OO ea ea ea
(quattro volte)

D    A    G   
OO   OO   OO ea ea ea
(due volte)


STROFA:

D                         A 
Da quanto tempo siamo qua noi stiamo ancora aspettando

D                         A 
secoli d'immondizia non c'hanno ancora cancellato

G                         D 
pensa solo a quanti siamo pensa solo se

G                              A 
la nostra grande forza che cos'è

D                      A 
Non ti dimenticare mai che cosa sei e cosa vuoi

D                     A 
questo muro è alto ma potremo anche abbatterlo

G                   D 
e una risata tutto quanto cambierà

G                             A 
la nostra grande forza che cos'è


RITORNELLO:

D  A  G  
OO OO OO ea ea ea
(quattro volte)


STROFA:

D                            A 
Quante volte hanno provato a farci cambiare idea

D                             A 
da quanto tempo stiam pagando per i loro guai

G                          D 
quante urla abbiam sentito dentro ai corridoi

G                            A  
quanti volti in gabbia siamo noi


RITORNELLO:
ripetere il ritornello


SOLO:
e|-----------------------------------------|
B|--------7-10-10-10--10-10-10-10--/12-10--|
G|--7-7-7----------------------------------|
D|-----------------------------------------|
A|------------<  tutto due volte  >--------|
E|-----------------------------------------|

e|-------------------------------------------------------|
B|--8-8-8-8-8-8-7-8-10-10-10-8-7---8-7---7-8-7---/12-10--|
G|-------------------------------------9-------9---------|
D|-------------------------------------------------------|
A|-------------------------------------------------------|
E|-------------------------------------------------------|

Accordi sotto il solo:
D  A  D  A  G  D  G  A  (come strofa)


STROFA:
ripetere la prima strofa


RITORNELLO:
ripetere il ritornello

OUTRO:
D..  A..  G.. 
OO   OO   OO ea ea ea
(due volte)

D    A    G   
OO   OO   OO ea ea ea
(la chitarra sfuma fino a sparire, lasciando solo il coro)
VIDEO

Se il video non dovesse essere più disponibile scrivi a indytab@googlemail.com. Grazie!
COMMENTA QUESTA TABLATURA
Devi avere JavaScript attivato per poter commentare! (misura antispam)