IndyTab Logo

BETA VERSION - 321 TABS DISPONIBILI

Cerca una tablatura nel nostro archivio:

Gruppo Canzone


Elenco dei gruppi presenti su IndyTab
Lista di tutte le tablature di IndyTab
DISCLAIMER
Questa tablatura rappresenta l'interpretazione della canzone da parte dell'autore. Può essere usata per scopi di studio, insegnamento e ricerca.

La tab è liberamente riproducibile in forum, blog, siti web (ad eccezione degli archivi di tablature online) e stampabile. Non è obbligatorio ma molto gradito citare la fonte (cioè IndyTab), meglio con un link di rimando al nostro sito.
ACCORDATORE
Per accordare la tua chitarra puoi usare il nostro accordatore online
TAB REQUEST
Stai cercando una tablatura? Suggeriscila compilando il modulo sottostante!

Gruppo
Titolo
Tua Mail

(la tua mail verrà usata per ricontattarti quando la tablatura sarà online)
DELLO STESSO GRUPPO

Porno Riviste // Io Sono Qui

Tablatura tratta dall'album: Codice A Sbarre

(clicca qui per la legenda)

(clicca qui per il video)

    C  D  F  G  A  A#
e|--------------------|
B|--------------------|
G|--5--7-----------3--|
D|--5--7--3--5--7--3--|
A|--3--5--3--5--7--1--|
E|--------1--3--5-----|


--------------------------------------------------------------------------


STROFA:
(palm muted)

     C
Sono qui

                        D
qui nell'immagine che è persa

                     F
persa negl'attimi di sosta

                      G
di sosta fatta dentro me

(qui la seconda chitarra suona gli stessi accordi a colpi)

        C
E cerco chi

                       D
sa ridere anche con se stessa

                      F      G
dopo i ricordi una promessa

                C..   [C]
senza parole ne bugie



STROFA:

     C(p.m.)
Sono chi

                             D(p.m.)
chi vola dentro un noi che aspetta

                       F(p.m.)
che aspetta solo la risposta

                          G
per ritrovare il suo perché

             C
che è dentro te

                     D
e volo dentro una tempesta

                          F      G
nell'aria ho aperto una finestra

                         C
tieniti e vola insieme a me



RITORNELLO:

         G           F               C
e guardo lì, vite estranee e strani eroi

        G        F               C
caccerò via i deserti e gli avvoltoi

           A(p.m) A#(p.m) 
nascosto o no            

           A(p.m) A#(p.m)
nascosto o no 
                  A..   A#..
il peggio è nel passato

                   C   [C]
ma il buio è un attimo



STROFA:


sono qui


spento in un sogno che si spezza


cerco un destino, una chiarezza


voltati e sai che sono lì

        C
e cerco chi

                       D
sa ridere anche con se stessa

                       F      G
l'ombra di un'unica scommessa

                       C
viverla solo insieme a te



RITORNELLO:

         G           F               C
e guardo lì, vite estranee e strani eroi

        G        F               C
caccerò via i deserti e gli avvoltoi

           A.. A#.. 
nascosto o no            

           A.. A#..
nascosto o no 
                  A     A#
il peggio è nel passato

                   C 
ma il buio è un attimo



CORO:
A# C A# C [C]


SOLO:
(due volte)

e|----------------------------------------------------|
B|-/11--11--9---------------------------------13------|
G|-/10--10-------12--10-9------------9-10-9-----------|
D|------------------------12---10-12------------------|
A|----------------------------------------------------|
E|----------------------------------------------------|
        [A#][A#] C        F               C

e|----------------------------------------------------|
B|-/11--11--9-----------------------------------------|
G|-/10--10-------12--10-9------------9-10-9-----------|
D|------------------------12---10-12------------------|
A|----------------------------------------------------|
E|----------------------------------------------------|
        [A#][A#] C        F               C

e|----------------------------------------------------|
B|----------------------------------------------------|
G|--9-9-9-9h10-9-7-----10/12-12-12-12-10-9------------|
D|----------------------------------------------------|
A|----------------------------------------------------|
E|----------------------------------------------------|
                 A#                      C

e|------------12-12h13-12-----------------------------|
B|------13-15-------------15-13-11--------------------|
G|--/12-----------------------------13-12--13-13p12\--|
D|----------------------------------------------------|
A|----------------------------------------------------|
E|----------------------------------------------------|
                    D        A#               C(a colpi)



ULTIMA STROFA:

[A#][A#] C..
Sono     qui

                         D..
qui nell'immagine che è persa

                     F..
persa negl'attimi di sosta

                      G..
di sosta fatta dentro me

        C
e cerco chi

                       D
sa ridere anche con se stessa

                      F     G
dopo i ricordi una promessa

                  C    G(p.m.)  [C]
senza parole ne bugie
VIDEO

Se il video non dovesse essere più disponibile scrivi a indytab@googlemail.com. Grazie!
COMMENTA QUESTA TABLATURA
Devi avere JavaScript attivato per poter commentare! (misura antispam)