IndyTab Logo

BETA VERSION - 321 TABS DISPONIBILI

Cerca una tablatura nel nostro archivio:

Gruppo Canzone


Elenco dei gruppi presenti su IndyTab
Lista di tutte le tablature di IndyTab
DISCLAIMER
Questa tablatura rappresenta l'interpretazione della canzone da parte dell'autore. Può essere usata per scopi di studio, insegnamento e ricerca.

La tab è liberamente riproducibile in forum, blog, siti web (ad eccezione degli archivi di tablature online) e stampabile. Non è obbligatorio ma molto gradito citare la fonte (cioè IndyTab), meglio con un link di rimando al nostro sito.
ACCORDATORE
Per accordare la tua chitarra puoi usare il nostro accordatore online
TAB REQUEST
Stai cercando una tablatura? Suggeriscila compilando il modulo sottostante!

Gruppo
Titolo
Tua Mail

(la tua mail verrà usata per ricontattarti quando la tablatura sarà online)
DELLO STESSO GRUPPO

Derozer // Vento

Tablatura tratta dall'album: Mondo Perfetto

(clicca qui per la legenda)

(clicca qui per il video)

      B    D    G    C#    A    F#  A#   G#    E 
e|--------------------------------------------------------------|
B|--------------------------------------------------------------|
G|----4----7---------6--------------3----------9----------------|
D|----4----7----5----6-----7----4---3----6-----9----------------|
A|----2----5----5----4-----7----4---1----6-----7----------------|
E|--------------3----------5----2--------4----------------------|

--------------------------------------------------------------------------

INTRO:

B  (D)  G  (C#) D  (G#) A   
B  (D)  G  (C#) D  (G#) A  [A]


STROFA:

B                   (D) 
Camminavo per la strada

G                     (C#)
solo tra le centinaia
 
D                (G#)
di passanti anonimi

A 
e la cosa un po' mi spaventava

B                  (D)
mi sembrava di sentire
 
G                (C#)
mille voci che...

D 
parlavano di sogni

     (G#)   A                
come capita di fare a volte 


RITORNELLO:

  D               C# 
a me, che sono soltanto

   F#              E 
in preda ad un mare agitato

          D           E  
che forse non mi lascerà

           D 
nonostante io

                F#  
ricerchi il mio vento

G          
quello che va sempre dritto

      D           A 
e che mai mi tradirà

D                  F# 
vento cerco il mio vento

G    
quello che va sempre dritto

      D           A 
e che mai mi tradirà


ASSOLO (x2):

                                   |-----x2-----|
e|--------------------------------------------------------|
B|--------------------------------------------------------|
G|--------------------------------------------------------|
D|---/9-9-9-7--------/9-9-9-7------/9-9-9-7---------------|
A|------------9------------------------------9------------|
E|--------------------------------------------------------|
    B                             G  

e|--------------------------------------------------------|
B|--------------------------------------------------------|
G|--------------------------------------------------------|
D|---/12-11-11----12-11-11----12-11-11----12-11-----------|
A|--------------------------------------------------------|
E|--------------------------------------------------------|
    D 

   |----x4----| 
e|--------------------------------------------------------|
B|--------------------------------------------------------|
G|--------------------------------------------------------|
D|---14-12-11---- 12--------------------------------------|
A|--------------------------------------------------------|
E|--------------------------------------------------------|
   A 


STROFA:

[B]                  [D] 
Camminavo per la strada

[G]                   [C#]
solo tra le centinaia
 
[D]              [G#]
di passanti anonimi

[A]
e la cosa un po' mi spaventava

[B][B]              [D]
mi sembrava di sentire
 
[G] [G]       [C#]
mille voci che...

[D][D]
parlavano di sogni

     [G#]  [A] [A]               
come capita di fare a volte 


RITORNELLO (come sopra)


      B  G  D  A  (X2)

CORO: aahhhaaahhh 


OUTRO:

A  A#  B 
VIDEO

Se il video non dovesse essere più disponibile scrivi a indytab@googlemail.com. Grazie!
COMMENTA QUESTA TABLATURA
Devi avere JavaScript attivato per poter commentare! (misura antispam)