IndyTab Logo

BETA VERSION - 321 TABS DISPONIBILI

Cerca una tablatura nel nostro archivio:

Gruppo Canzone


Elenco dei gruppi presenti su IndyTab
Lista di tutte le tablature di IndyTab
DISCLAIMER
Questa tablatura rappresenta l'interpretazione della canzone da parte dell'autore. Può essere usata per scopi di studio, insegnamento e ricerca.

La tab è liberamente riproducibile in forum, blog, siti web (ad eccezione degli archivi di tablature online) e stampabile. Non è obbligatorio ma molto gradito citare la fonte (cioè IndyTab), meglio con un link di rimando al nostro sito.
ACCORDATORE
Per accordare la tua chitarra puoi usare il nostro accordatore online
TAB REQUEST
Stai cercando una tablatura? Suggeriscila compilando il modulo sottostante!

Gruppo
Titolo
Tua Mail

(la tua mail verrà usata per ricontattarti quando la tablatura sarà online)
DELLO STESSO GRUPPO

Derozer // Nuova Generazione

Tablatura tratta dall'album: Mondo Perfetto

(clicca qui per la legenda)

     D     B      G     A 
e|----------------------------------|
B|----------------------------------|
G|---7------------------------------|
D|---7-----9------5-----7-----------|
A|---5-----9------5-----7-----------|
E|---------7------3-----5-----------|


--------------------------------------------------------------------------


INTRO (x2):

e|-------------------------------------------|
B|-------------------------------------------|
G|-------------------------------------------|
D|---7-9-7-9-7-9-7-9-------------------------|
A|---5-5-5-5-5-5-5-5---9-10-9-10-9-10-9-10---|
E|---------------------7-7--7-7--7-7--7-7----|

e|---------------------------------------|
B|---------------------------------------|
G|---------------------------------------|
D|---------------------------------------|
A|---5-7-5-7-5-7-5-7---7-9-7-9-7-9-7-9---|
E|---3-3-3-3-3-3-3-3---5-5-5-5-5-5-5-5---|


STROFA 1:
        
         D                  B  
Nuovo millennio nuova generazione

        G                       A     
capelli colorati ormai non sono più una trasgressione

          D                     B 
il mondo avanza e non si può fermare

           G                            A 
per trasgredire ormai non si sa proprio più cosa inventare

        G      A  [A]
vuoi di più...


STROFA 2:

         D                 B 
La marijuana ed i suoi derivati

         G                   A 
ormai li fuman solamente casalinghe e pensionati

         D                  B 
il sesso si cambierà regolarmente

         G                      A 
a mano a mano che conosci nuova gente

         G    [A]
nuovo millennio!


RITORNELLO (x2):

              D    B  G   A 
e nuova generazione


PONTE:

  G                     A             
amplessi telematici ed amici cibernetici

   G                      D     
virtuali gli stipendi per pagar cibi transgenici

   G    [A]
millennio!


RITORNELLO (x4):

              D    B  G   A 
e nuova generazione


OUTRO:
D..
COMMENTA QUESTA TABLATURA
Devi avere JavaScript attivato per poter commentare! (misura antispam)