IndyTab Logo

BETA VERSION - 321 TABS DISPONIBILI

Cerca una tablatura nel nostro archivio:

Gruppo Canzone


Elenco dei gruppi presenti su IndyTab
Lista di tutte le tablature di IndyTab
DISCLAIMER
Questa tablatura rappresenta l'interpretazione della canzone da parte dell'autore. Può essere usata per scopi di studio, insegnamento e ricerca.

La tab è liberamente riproducibile in forum, blog, siti web (ad eccezione degli archivi di tablature online) e stampabile. Non è obbligatorio ma molto gradito citare la fonte (cioè IndyTab), meglio con un link di rimando al nostro sito.
ACCORDATORE
Per accordare la tua chitarra puoi usare il nostro accordatore online
TAB REQUEST
Stai cercando una tablatura? Suggeriscila compilando il modulo sottostante!

Gruppo
Titolo
Tua Mail

(la tua mail verrà usata per ricontattarti quando la tablatura sarà online)

Bambole Di Pezza // Le Streghe

Tablatura tratta dall'album: Crash Me

(clicca qui per la legenda)

(clicca qui per il video)

     D    A    B    G
e|------------------------------|
B|------------------------------|
G|---7--------------------------|
D|---7----7----9----5-----------|
A|---5----7----9----5-----------|
E|--------5----7----3-----------|


--------------------------------------------------------------------------


INTRO (x2):

    (Suonare 8 volte ogni nota)
e|---------------------------------|
B|---------------------------------|
G|---------------------------------|
D|---------------------------------|
A|---------------------------------|
E|-----10-----5-----7------3-------|


STROFA 1:
(Continua il riff dell'intro accompagnato dal basso.
 La seconda chitarra, invece, fa solo la pennata iniziale per 
 ogni accordo)

D..     A.. B..        G..
Tremate che le streghe son tornate

D..     A.. B..      G..
Ammaliando  per essere adorate

D..       A..  B..       G..
Sogno proibito di un desiderio

D..     A.. B..        G..   
Baciami e   ti svelerò il segreto


CORO (x2):

D  A  B  G
Uohoho


RITORNELLO:

D            A               B
Ora volo via che stregoneria

             G       D
Rapito dalla mia melodia

                    A                B  
Questa è una follia che ci porta via

           G
Le streghe son tornate


STROFA 2:

D..     A.. B..        G..  
Tremate che le streghe son tornate

D..     A..  B..     G..
Fuman marija ed erbe prelibate

D..       A..  B..        G.. 
Se vuoi volare lasciati andare

D..      A.. B..        G..
Tu vieni qua il viaggio può iniziare


CORO: come sopra


RITORNELLO: come sopra


ASSOLO:

e|--------------------------------------------------------------------|
B|-----------------7--7-7--7-7----------------------------------------|
G|--7--7-7--7--9------------------------------------------------------|
D|-------------------------------5--5-5--5---7---5--5-5--5-5----------|
A|--------------------------------------------------------------------|
E|--------------------------------------------------------------------|
    D             A              B               G

e|----------------------------------------------7---10--10-10--10-10--|
B|-----------------7--7-7--7-7---10--10-10--10------------------------|
G|--7--7-7--7--9------------------------------------------------------|
D|--------------------------------------------------------------------|
A|--------------------------------------------------------------------|
E|--------------------------------------------------------------------|
    D              A             B                  G

e|--------------------------------------------------------------------|
B|-----------------7--7-7--7-7----------------------------------------|
G|--7--7-7--7--9------------------------------------------------------|
D|-------------------------------5--5-5--5---7---5--5-5--5-5----------|
A|--------------------------------------------------------------------|
E|--------------------------------------------------------------------|
    D             A              B               G

e|----------------------------------------------7---10--10-10--10-10--|
B|-----------------7--7-7--7-7---10--10-10--10------------------------|
G|--7--7-7--7--9------------------------------------------------------|
D|--------------------------------------------------------------------|
A|--------------------------------------------------------------------|
E|--------------------------------------------------------------------|
    D              A             B                  G

STROFA 3:
(Nella strofa viene suonato alcune volte l'armonico naturale
al settimo tasto della quarta corda)

D..     A.. B..        G.. 
Tremate che le streghe son tornate

D..     A.. B..       G.. 
E scoprirai che non potrai sfuggire

D..       A..  B..           G..
Filtro d’amore mi stringe il cuore

D..   A.. B..          G.. (pickslide)
Ipnotico  lo sguardo incantatore


CORO: come sopra


RITORNELLO: come sopra


STACCO (x2):

D.. A.. B.. G..


CORO: come sopra


RITORNELLO:

D            A               B
Ora volo via che stregoneria

             G       D
Rapito dalla mia melodia

                    A                B  
Questa è una follia che ci porta via

           G
Le streghe son tornate

D  A  B          G
      Le streghe son tornate

D  A  B          G
      Le streghe son tornate

D  A  B          G
      Le streghe son tornate

D  A  B          G
      Le streghe son tornate

OUTRO:
D..
VIDEO

Se il video non dovesse essere più disponibile scrivi a indytab@googlemail.com. Grazie!
COMMENTA QUESTA TABLATURA
Devi avere JavaScript attivato per poter commentare! (misura antispam)