IndyTab Logo

BETA VERSION - 321 TABS DISPONIBILI

Cerca una tablatura nel nostro archivio:

Gruppo Canzone


Elenco dei gruppi presenti su IndyTab
Lista di tutte le tablature di IndyTab
DISCLAIMER
Questa tablatura rappresenta l'interpretazione della canzone da parte dell'autore. Può essere usata per scopi di studio, insegnamento e ricerca.

La tab è liberamente riproducibile in forum, blog, siti web (ad eccezione degli archivi di tablature online) e stampabile. Non è obbligatorio ma molto gradito citare la fonte (cioè IndyTab), meglio con un link di rimando al nostro sito.
ACCORDATORE
Per accordare la tua chitarra puoi usare il nostro accordatore online
TAB REQUEST
Stai cercando una tablatura? Suggeriscila compilando il modulo sottostante!

Gruppo
Titolo
Tua Mail

(la tua mail verrà usata per ricontattarti quando la tablatura sarà online)
DELLO STESSO GRUPPO

Derozer // Amore Sincero

Tablatura tratta dall'album: Bar

(clicca qui per la legenda)

    G    G(X)    C    C#   D   B    A
e|---------------------------------------|
B|---------------------------------------|
G|--------12-----5----6----7---4---------|
D|--5-----12-----5----6----7---4----7----|
A|--5-----10-----3----4----5---2----7----|
E|--3-------------------------------5----|


------------------------------------------------------------------------

RIFF (x2):

e|---------------------------------|
B|---1-0---1---0-------------------|
G|-------0-------0-----------------|
D|---------------------------------|
A|---------------------------------|
E|---------------------------------|
                   G      D     C 


STROFA:

G             D    C    
Li sentivo gridare quasi ogni sera

G              D            C             D  
e vedevo gli oggetti volare fuori dalla finestra

C 
li incontravo ogni giorno per le scale

G(X) 
coperti di lividi 

C                   [D]
li vedevo zoppicare

ma poi li sentivo amare


RITORNELLO:

G          D     C         D  
Un amore sincero un amore vero (x2)

C                   D      (C#) D  (C#) C 
tutti e due si lamentavano 

C                        D     [D]
ma da vent'anni si sopportavano


ASSOLO:
            
e|-----------------------------------------------------------------|
B|-----------------------------------------------------------------|
G|--5-4-----------------7-----7-5-4-5----4-5---7/9-9-7-7-5-5-4-5---|
D|------7-4-5-5---5-7-5--------------------------------------------|
A|-----------------------------------------------------------------|
E|-----------------------------------------------------------------|
            G           D           C            D 

e|-----------------------------------------------------------------|
B|-----------------------------------------------------------------|
G|------------7-----7-5-4-5----4-5---7/9-9-7-7-5-5-4-5-5-----------|
D|--5---5-7-5------------------------------------------------------|
A|-----------------------------------------------------------------|
E|-----------------------------------------------------------------|
    G         D           C            D 


STROFA:

C 
schiavi l'uno dell'altra prigionieri

G(X) 
di un'incredibile parodia

C                       [D]
mentre la donna che ami

se ne sta già andando via 


RITORNELLO:

G          D     C         D  
Un amore sincero un amore vero (x2)

C                   D      (C#) D  (C#) C 
tutti e due si lamentavano 

C                        D   
ma da vent'anni si sopportavano


G          D     C        D  
Un amore sincero un amore vero (x4)


OUTRO:
D  C  B  A  G..
COMMENTI
7/11/11 21:47, Enrico:
fantastica, perfetta... come tutte quelle di questo sito daltronde!!

3/12/11 13:32, Alberto (Staff Indytab):
Grazie mille Enrico!!

Ultimamente siamo rimasti inattivi, ma i vostri commenti ci ridanno la forza per poter lavorare a nuove tabulature.

Coming back pretty soon :)

COMMENTA QUESTA TABLATURA
Devi avere JavaScript attivato per poter commentare! (misura antispam)