IndyTab Logo

BETA VERSION - 321 TABS DISPONIBILI

Cerca una tablatura nel nostro archivio:

Gruppo Canzone


Elenco dei gruppi presenti su IndyTab
Lista di tutte le tablature di IndyTab
DISCLAIMER
Questa tablatura rappresenta l'interpretazione della canzone da parte dell'autore. Può essere usata per scopi di studio, insegnamento e ricerca.

La tab è liberamente riproducibile in forum, blog, siti web (ad eccezione degli archivi di tablature online) e stampabile. Non è obbligatorio ma molto gradito citare la fonte (cioè IndyTab), meglio con un link di rimando al nostro sito.
ACCORDATORE
Per accordare la tua chitarra puoi usare il nostro accordatore online
TAB REQUEST
Stai cercando una tablatura? Suggeriscila compilando il modulo sottostante!

Gruppo
Titolo
Tua Mail

(la tua mail verrà usata per ricontattarti quando la tablatura sarà online)
DELLO STESSO GRUPPO

Dance Hall Crashers // Lost Again

Tablatura tratta dall'album: Honey I'm Homely

(clicca qui per la legenda)

(clicca qui per il video)

     E    A   C#m   F#   B       E   E(0)  A    B   D   C#
e|---7----5----4----2----7---|------------------------------|
B|---9----5----5----2----7---|------------------------------|
G|---9----6----6----3----8---|---9------------------7---6---|
D|--(9)--(7)--(6)--(4)--(9)--|---9----2----7----9---7---6---|
A|--(7)--(7)--(4)--(4)--(9)--|---7----2----7----9---5---4---|
E|-------(5)-------(2)--(7)--|--------0----5----7-----------|
 
        ska chords                     power chords 

--------------------------------------------------------------------------


INTRO:

(ska rhythm)
E A C#m F# (F#)/A (A)/B

(power chords)
      pickslide
[E]   [E][E]



VERSE 1:

(ska rhythm)

E     A              C#m            F# 
Lost again, somebody tell me how to get there

         (F#)/A             (A)/B
'cause i can't take another handshake

   E 
or another blank stare

E         A                  C#m                  F#
thought i knew what i had to do to get through to you


(F#)/A             (A)/B          E     (ska rhythm)
A(p.m.)            B(p.m.)        E     (power chords)
guess your head is thicker than i thought


(ska rhythm)

E        A                C#m                 F#
you know i am starting to think that it might be you

         (F#)/A            (A)/B
'cause i know you've got a lot of things

    E   
and people you look to

E        A                  C#m                      F#
do you believe that i never see what you're doing to me?


(F#)/A                     (A)/B         E      (ska rhythm)
A(p.m.)                    B(p.m.)       E      (power chords)
i'll keep smiling till the door closes behind me



CHORUS:

(power chords + ska rhythm)

A..            B..   + RIFF1 
i know where i wanna go

      E                    D                      C#m    C#m..
but i just don't know no i just don't know how to get there

A..            B..   + RIFF1 
i know where i wanna go

      E                    D                      C#m    C#m..
but i just don't know no i just don't know how to get there


(power chords)
      pickslide
[E]   [E][E]


RIFF1:

e|---7-----|
B|---7-----|
G|---------|
D|---------|
A|---------|
E|---------|
  (Repeat the chord)



VERSE 2:

(ska rhythm)

E     A              C#m            F#
lost again, somebody tell me how to get there

   (F#)/A        (A)/B       E
if i hit another detour i'm afraid that i won't care

E          A                     C#m             F# 
who'd have thought that i'd have bought the expectations


(F#)/A                  (A)/B                  E      (ska rhythm)
A(p.m.)                 B(p.m.)                E      (power chords)
that gold road probably just leads straight to hell


(ska rhythm)
E            A                   C#m                  F#
and once i'm there are you gonna care or conveniently look away

(F#)/A          (A)/B           E
i don't think i want us to fall off and die that way

E        A                  C#m                      F#
do you believe that i never see what you're doing to me?


(F#)/A                     (A)/B         E      (ska rhythm)
A(p.m.)                    B(p.m.)       E      (power chords)
i'll keep smiling till the door closes behind me



CHORUS: repeat CHORUS.



SOLO:

(ska rhythm)

e|--/7--7------7---10-9-7-------------------------------------------|
B|--/7--7---10------------10-------8-8------------------------------|
G|--------------------------------------9-9--7-7-------7-7--9-9-----|
D|------------------------------------------------9-9---------------|
A|------------------------------------------------------------------|
E|------------------------------------------------------------------|
     E             A               C#m                 F#

                                              (  second guitar   )
e|--------------------------------------------(7-7-7-7-7-4--7-7-7)--|
B|--8---8-10b---10b---10b---10b12r10----8-----(7-7-7-7-7-5--7-7-7)--|
G|----9-------------------------------9----9-7-9--------------------|
D|------------------------------------------------------------------|
A|------------------------------------------------------------------|
E|------------------------------------------------------------------|
          (F#)/A            (A)/B              E

e|--/7-7-7-7------------------------------------------|
B|--/7-7-7-7---10-8-----------8-10b12-10-8------------|
G|------------------9-7---7-9--------------9----------|
D|----------------------9-----------------------------|
A|----------------------------------------------------|
E|----------------------------------------------------|
     E         A        C#m     F# 

e|-----------------------------------------7-7-7-7----|
B|-----------------------------------------7-7-7-7----|
G|-------6-6-9-9-6---------8-8-11-11-8----------------|
D|--/7-7--------------/9-9----------------------------|
A|----------------------------------------------------|
E|----------------------------------------------------|
    (F#)/A             (A)/B               E      (ska rhythm)
    A(p.m.)            B(p.m.)             E      (power chords)



CHORUS: repeat CHORUS.



OUTRO:

(power chords)

   E A   E  B        E A   G# F#
do you, (do you), do you, (do you)   (x3) 

   E A   E  B        E A   G#      F#     E(0)..
do you, (do you), do you,  tell me if you do
VIDEO

Se il video non dovesse essere più disponibile scrivi a indytab@googlemail.com. Grazie!
COMMENTA QUESTA TABLATURA
Devi avere JavaScript attivato per poter commentare! (misura antispam)