IndyTab Logo

BETA VERSION - 321 TABS DISPONIBILI

Cerca una tablatura nel nostro archivio:

Gruppo Canzone


Elenco dei gruppi presenti su IndyTab
Lista di tutte le tablature di IndyTab
DISCLAIMER
Questa tablatura rappresenta l'interpretazione della canzone da parte dell'autore. Può essere usata per scopi di studio, insegnamento e ricerca.

La tab è liberamente riproducibile in forum, blog, siti web (ad eccezione degli archivi di tablature online) e stampabile. Non è obbligatorio ma molto gradito citare la fonte (cioè IndyTab), meglio con un link di rimando al nostro sito.
ACCORDATORE
Per accordare la tua chitarra puoi usare il nostro accordatore online
TAB REQUEST
Stai cercando una tablatura? Suggeriscila compilando il modulo sottostante!

Gruppo
Titolo
Tua Mail

(la tua mail verrà usata per ricontattarti quando la tablatura sarà online)
DELLO STESSO GRUPPO

Derozer // Società

Tablatura tratta dall'album: Bar

(clicca qui per la legenda)

    E  A  B  C#  F#  D#
e|----------------------|
B|----------------------|
G|--9--------6--11---8--|
D|--9--7--9--6--11---8--|
A|--7--7--9--4---9---6--|
E|-----5--7-------------|


--------------------------------------------------------------------------


INTRO:
E..  A..  B..  x3
E.. [A]
E  C#  A  B  x2



STROFA:

E            C#         A
Pensi che la musica sia libera

     B            E           C#
e di tutti espressione di uno spirito

         A          B
che vuol dire libertà

   E             C#         
ma invece poi ti accorgi che se

A           B    E   
musica vuoi fare come prima

C#      A    B
cosa tu devi pagare la



RITORNELLO:

E                  A            B
Società Italiana Autorizzata in Estorsioni

E                A     B
Società italiana uho uho

E                  A            B
Società Italiana Autorizzata in Estorsioni

E                A     B
Società italiana uho uho



PONTE:

A       
Cerchi in tutti i modi di

B
sfuggire alla sua morsa

   E                   (D#)C#            (B)
ma inevitabilmente lei continua la rincorsa

   A                        B
un organismo occulto che dobbiamo

              E
smantellare tenuto in vita da

            F#                (D#)
chi i soldi tuoi vuole rubare


SOLO:
e|--------------------------------------------------------|
B|----------------9---------------------------------------|
G|--8/9--9-8-9-11---11-9-11-9-8-9---9-8-9-8---6-9---8-11--|
D|------------------------------------------7-----9-------|
A|--------------------------------------------------------|
E|--------------------------------------------------------|
    E             A      B      E           A     B

e|-----------------------------------------------------------|
B|--------------9--------------------------------------------|
G|--9--9-8-9-11---11-9-11-9h11p9-8-9----9-8-9-8---6-9--------|
D|----------------------------------------------7-----9------|
A|-----------------------------------------------------------|
E|-----------------------------------------------------------|
    E           A      B           E            A    [B]


PONTE:
(ripetere il ponte)


RITORNELLO:
(ripetere il ritornello)


OUTRO:
A B 4x E..
COMMENTA QUESTA TABLATURA
Devi avere JavaScript attivato per poter commentare! (misura antispam)