IndyTab Logo

BETA VERSION - 321 TABS DISPONIBILI

Cerca una tablatura nel nostro archivio:

Gruppo Canzone


Elenco dei gruppi presenti su IndyTab
Lista di tutte le tablature di IndyTab
DISCLAIMER
Questa tablatura rappresenta l'interpretazione della canzone da parte dell'autore. Può essere usata per scopi di studio, insegnamento e ricerca.

La tab è liberamente riproducibile in forum, blog, siti web (ad eccezione degli archivi di tablature online) e stampabile. Non è obbligatorio ma molto gradito citare la fonte (cioè IndyTab), meglio con un link di rimando al nostro sito.
ACCORDATORE
Per accordare la tua chitarra puoi usare il nostro accordatore online
TAB REQUEST
Stai cercando una tablatura? Suggeriscila compilando il modulo sottostante!

Gruppo
Titolo
Tua Mail

(la tua mail verrà usata per ricontattarti quando la tablatura sarà online)
DELLO STESSO GRUPPO

Derozer // Mario

Tablatura tratta dall'album: Bar

(clicca qui per la legenda)

    B  G#  E  F#  D#  C#
e|-------------------------|
B|-------------------------|
G|--9------9--11--8---6----|
D|--9--6---9--11--8---6----|
A|--7--6---7---9--6---4----|
E|-----4-------------------|


------------------------------------------------------------------------


INTRO:

B G# E [F#] [E] [D#] [E] x4
[B] pickslide



STROFA:

B              G#
All'ufficio di collocamento

C#             E       F#
conosci questo conosci quello

B               G#
da due anni sei disoccupato

C#                E       F#
ma non è vero che sei uno sfaticato



RITORNELLO (x4):

B           (E) C#   F# E
Mario ha la brosa



STROFA:

B                G#
cerchi un lavoro particolare

C#                          E      F#
che non ti stanchi e non ti faccia sudare

B                         G#
che non ci si alzi troppo presto al mattino

C#              E           F#
e non ci sia da timbrare il cartellino



RIPETERE RITORNELLO



SOLO:
e|--------------------------------------------------|
B|--------------------------------------------------|
G|---8h9-8---8h9-8---8-9-11-9----8----9----8--------|
D|-9-------9-------9--------------------------------|x3
A|--------------------------------------------------|
E|--------------------------------------------------|
   B       G#      E        [F#] [E] [D#] [E]

e|--------------------------------------------------|
B|--------------------------------------------------|
G|---8h9-8---8h9-8---8-9-11-9----8----9~------------|
D|-9-------9-------9--------------------------------|
A|--------------------------------------------------|
E|--------------------------------------------------|
   B       G#      E        [F#] [E] [D#] [E]



RIPETERE RITORNELLO



RITORNELLO FINALE (x4):

B     (E) C#    F#  E
Mario ha     la brosa



OUTRO:
B G# E [F#] [E] [D#] [E] [B]
COMMENTA QUESTA TABLATURA
Devi avere JavaScript attivato per poter commentare! (misura antispam)