IndyTab Logo

BETA VERSION - 321 TABS DISPONIBILI

Cerca una tablatura nel nostro archivio:

Gruppo Canzone


Elenco dei gruppi presenti su IndyTab
Lista di tutte le tablature di IndyTab
DISCLAIMER
Questa tablatura rappresenta l'interpretazione della canzone da parte dell'autore. Puō essere usata per scopi di studio, insegnamento e ricerca.

La tab č liberamente riproducibile in forum, blog, siti web (ad eccezione degli archivi di tablature online) e stampabile. Non č obbligatorio ma molto gradito citare la fonte (cioč IndyTab), meglio con un link di rimando al nostro sito.
ACCORDATORE
Per accordare la tua chitarra puoi usare il nostro accordatore online
TAB REQUEST
Stai cercando una tablatura? Suggeriscila compilando il modulo sottostante!

Gruppo
Titolo
Tua Mail

(la tua mail verrā usata per ricontattarti quando la tablatura sarā online)
DELLO STESSO GRUPPO

Derozer // La Bionda

Tablatura tratta dall'album: Alla Nostra Etā

(clicca qui per la legenda)

    C#  B  A  D  E
e|------------------|
B|------------------|
G|------------7--9--|
D|--11--9--7--7--9--|
A|--11--9--7--5--7--|
E|--9---7--5--------|


--------------------------------------------------------------------------


INTRO:
C# (B) A D E x4
A (D) A (D) A (D) [A]



STROFA:

A                      (D)   (C#)   A
Lei passa ogni mattina con puntualitā

A                         (D) (C#)   E
ed io corro come un matto per essere lā

B       D   A        B          D     A     
succede il finimondo in mezzo a quell'incrocio

B        D     A     B      E
ogni volta che passa lei... lei



RITORNELLO:

C# (B) A     D     E  
La bionda in Cinquecento

C# (B) A     D     E  
La bionda in Cinquecento

C# (B) A     D     E  
La bionda in Cinquecento

C# (B) A     D     E  
La bionda in Cinquecento



PONTE:

D                       E
Mi hanno giā tamponato, la macchina sfasciato

C#                   D  C#..
ma devo esser sempre lā

D                     E    
due costole incrinato e un braccio fratturato

C#                     D   E
ma voglio esser sempre lā



SOLO:
e|--------------------------------------------------|
B|--------------------------------------7-----------|
G|-6---------7-6---------6--------7-6-7---9-7-6-7---|
D|----9--7-------7-9--------9--7--------------------|
A|--------------------------------------------------|
E|--------------------------------------------------|
   C# B  A   D   E       C# B  A  D       E   

e|--------------------------------------------------|
B|--------------------------------------7-----------|
G|-6---------7-6---------6--------7-6-7---9-7-6-7---|
D|----9--7-------7-9--------9--7------------------7-|
A|--------------------------------------------------|
E|--------------------------------------------------|
   C# B  A   D   E       C# B  A  D       E       A..



PONTE:
(ripetere il ponte)



RITORNELLO:
(ripetere il ritornello)



OUTRO:
A.. A..
COMMENTA QUESTA TABLATURA
Devi avere JavaScript attivato per poter commentare! (misura antispam)