IndyTab Logo

BETA VERSION - 321 TABS DISPONIBILI

Cerca una tablatura nel nostro archivio:

Gruppo Canzone


Elenco dei gruppi presenti su IndyTab
Lista di tutte le tablature di IndyTab
DISCLAIMER
Questa tablatura rappresenta l'interpretazione della canzone da parte dell'autore. Può essere usata per scopi di studio, insegnamento e ricerca.

La tab è liberamente riproducibile in forum, blog, siti web (ad eccezione degli archivi di tablature online) e stampabile. Non è obbligatorio ma molto gradito citare la fonte (cioè IndyTab), meglio con un link di rimando al nostro sito.
ACCORDATORE
Per accordare la tua chitarra puoi usare il nostro accordatore online
TAB REQUEST
Stai cercando una tablatura? Suggeriscila compilando il modulo sottostante!

Gruppo
Titolo
Tua Mail

(la tua mail verrà usata per ricontattarti quando la tablatura sarà online)
DELLO STESSO GRUPPO

Los Fastidios // S. H. A. R. P.

Tablatura tratta dall'album: Contiamo Su Di Voi!

(clicca qui per la legenda)

(clicca qui per il video)

     A    C    G    F  
e|-------------------------|
B|-------------------------|
G|--------5----------------|
D|---7----5----5----3------|
A|---7----3----5----3------|
E|---5---------3----1------|

--------------------------------------------------------------------------


INTRO:

[A]     [F]
Skin! e Punk!

[C]       G  
Skin! e Punk!


A F C [G]


STROFA:

A     F     C           G       
Lungo corteo si sta muovendo

A       F           C          G           
ci vedi arrivare in fondo alla via

A          F      C       G   
senti gli slogan stiamo cantando

A           F       C       G   
siamo accerchiati dalla polizia

A    F     C     G   
UOOO UOOOO UOOOO UOOOO

A    F     C     G   
UOOO UOOOO UOOOO UOOOO

A        F       C           G   
E puoi vedere i nostri striscioni

A          F      C          G   
l'elmo troiano si alza su di noi

A          F         C        G   
senti il rumore dei nostri scarponi

A       F        C      G   
e fate largo ai ribelli oi!


RITORNELLO:

[C] [C] [C] [C] [C] [C] [C]
S.       H.     A.  R.  P.

F              G  
Skin e Punk contro il razzismo

[C] [C] [C] [C] [C] [C] [C]
S.       H.     A.  R.  P.

F             G  
per le vie della città

[C] [C] [C] [C] [C] [C] [C]
S.       H.     A.  R.  P.

F             G  
la voce dei ribelli

[C] [C] [C] [C] [C] [C] [C]
S.       H.     A.  R.  P.

F              G  
la forza una realtà

A  F  C     G   
S. H. A. R. P.

A  F  C     G   
S. H. A. R. P.


PRESOLO:
A  F  C  [G]


SOLO (x2):

e|---------------------------------|
B|---------------------------------|
G|--9-7-5-7--9-7-5-7--9-9-9-10-7---|
D|---------------------------------|
A|---------------------------------|
E|---------------------------------|
    A        F        C        G  

e|-------------------------------------------|
B|-------------------------------------------|
G|--9-7-5-7--9-7-5-7--/12-10-9-7--9-10--9-7--|
D|-------------------------------------------|
A|-------------------------------------------|
E|-------------------------------------------|
    A        F        C        G  


STROFA: come sopra


RITORNELLO: come sopra


OUTRO:
A..

S. H. A. R. P.

      (pickslide)
S. H. A. R. P.

A  F  C     G   
S. H. A. R. P.

A  F  C     G   
S. H. A. R. P.

          A..
Skinhead!
VIDEO

Se il video non dovesse essere più disponibile scrivi a indytab@googlemail.com. Grazie!
COMMENTA QUESTA TABLATURA
Devi avere JavaScript attivato per poter commentare! (misura antispam)