IndyTab Logo

BETA VERSION - 321 TABS DISPONIBILI

Cerca una tablatura nel nostro archivio:

Gruppo Canzone


Elenco dei gruppi presenti su IndyTab
Lista di tutte le tablature di IndyTab
DISCLAIMER
Questa tablatura rappresenta l'interpretazione della canzone da parte dell'autore. Può essere usata per scopi di studio, insegnamento e ricerca.

La tab è liberamente riproducibile in forum, blog, siti web (ad eccezione degli archivi di tablature online) e stampabile. Non è obbligatorio ma molto gradito citare la fonte (cioè IndyTab), meglio con un link di rimando al nostro sito.
ACCORDATORE
Per accordare la tua chitarra puoi usare il nostro accordatore online
TAB REQUEST
Stai cercando una tablatura? Suggeriscila compilando il modulo sottostante!

Gruppo
Titolo
Tua Mail

(la tua mail verrà usata per ricontattarti quando la tablatura sarà online)
DELLO STESSO GRUPPO

Porno Riviste // L'Ale Vive Nei Boschi

Tablatura tratta dall'album: Fino Alla Fine

(clicca qui per la legenda)

(clicca qui per il video)

      C    G     D  
e|--------------------|
B|--------------------|
G|----5----------7----|
D|----5----5-----7----|
A|----3----5-----5----|
E|---------3----------|


--------------------------------------------------------------------------


RIFF 1a:
e|--------------------------------------------------|
B|--------------------------------------------------|
G|---4----7-5-4-5--4--------4----5-4----------------|
D|-----5--------------5--7----5------5-7--5--7------|
A|--------------------------------------------------|
E|--------------------------------------------------|

RIFF 1b:
e|--------------------------------------------------|
B|-----------------5--------------------------------|
G|---4----7-5-4-5-----7--5--4----5-4----------------|
D|-----5----------------------5------5-7--5--7------|
A|--------------------------------------------------|
E|--------------------------------------------------|

RIFF 1c:
e|--------------------------------------------------|
B|--------------------------------------------------|
G|---4----7-5-4-5--4--------4------7----------------|
D|-----5--------------5--7---------------(5)--------|
A|--------------------------------------------------|
E|--------------------------------------------------|


INTRO: 

RIFF 1a in palm muted ripetendo le note più lunghe
RIFF 1a normale 2x
RIFF 1b
RIFF 1c

Sotto ai riff la seconda chitarra fa:

G  C  G  D 

tranne sotto l'ultimo riff in cui fa:

G  D  G  


STROFA:

[G]            [D]
L'Ale vive nei boschi

       [G]      [C]      [D]
Se n'è andata non sta più qua

      [G]            [D]
Da lontano annusa la fine
 
        [G]       [C]    [D]
Di ogni paese e di ogni città

C                D 
Io sono bloccato qua

        G         C 
C'è qualcosa che appiccica

   D 
In questo posto

C                 D 
E tu non vivi più qui

       G           C 
Niente botte o violenza

    D 
Soltanto bosco

       G           C 
Niente botte o violenza

    D 
Soltanto bosco

FILL:
(da suonare dopo la prima strofa)
e|---------------------------------------------|
B|---3----3-------------3----3-----------------|
G|---5b7-(7)-7b5p3---3--5b7-(7)-7b5p3----------|
D|-----------------5------------------5-3-5----|
A|---------------------------------------------|
E|---------------------------------------------|
     D 

STROFA:

[G]                 [D]
L'Ale è uscita da un gioco

    [G]     [C]    [D]
Di bugie ed infelicità

          [G]               [D]
Piglia il sole e agisce con calma

       [G]      [C]     [D]
Intanto io sono bloccato qua

C               D 
Non capisco cos'è

    G           C       D 
Decadenza o declino di tutto questo

    C              D 
È l'ultimo e unico film

       G       C        D 
Ma nessuno stavolta mi fotte il posto

       G       C        D             D 
Ma nessuno stavolta mi fotte il posto


PONTE:

C                         G  
Finchè una volta ho camminato fino a casa sua

C                      G  
Conosco quella stanza bene come fosse mia

C          G            C 
Ma più suonavo e capivo che

             G             C 
Dovunque sia qui tanto non c'è

       G      D 
Adesso vive lontano


SOLO:

RIFF 1a in palm muted 2 volte 
RIFF 1a
RIFF 1c

Chitarra ritmica sotto al solo:
G.. C.. G.. D..
G.. C.. G.. D..
G   C   G   D 
G   D   G  


ULTIMA STROFA:

[G]            [D]
Come un cane malato

        [G]      [C]    [D]
Ti ho sognato lontano da qua

          [G]                   [D]
Poi ho sputato e ho chiuso gli anfibi

       [G]      [C]   [D]
Con un tocco di attualità!


OUTRO:

C  [D]
VIDEO

Se il video non dovesse essere più disponibile scrivi a indytab@googlemail.com. Grazie!
COMMENTA QUESTA TABLATURA
Devi avere JavaScript attivato per poter commentare! (misura antispam)