IndyTab Logo

BETA VERSION - 321 TABS DISPONIBILI

Cerca una tablatura nel nostro archivio:

Gruppo Canzone


Elenco dei gruppi presenti su IndyTab
Lista di tutte le tablature di IndyTab
DISCLAIMER
Questa tablatura rappresenta l'interpretazione della canzone da parte dell'autore. Può essere usata per scopi di studio, insegnamento e ricerca.

La tab è liberamente riproducibile in forum, blog, siti web (ad eccezione degli archivi di tablature online) e stampabile. Non è obbligatorio ma molto gradito citare la fonte (cioè IndyTab), meglio con un link di rimando al nostro sito.
ACCORDATORE
Per accordare la tua chitarra puoi usare il nostro accordatore online
TAB REQUEST
Stai cercando una tablatura? Suggeriscila compilando il modulo sottostante!

Gruppo
Titolo
Tua Mail

(la tua mail verrà usata per ricontattarti quando la tablatura sarà online)
DELLO STESSO GRUPPO

Persiana Jones // Sempre Di Più

Tablatura tratta dall'album: Brivido Caldo

(clicca qui per la legenda)

     B    E    F#   G#m    C#    D#  F#(II)   G#   C#(IX)
e|---7----7----9-----4-----4-----6-----2------4-----9----|
B|---7----9----11----4-----6-----8-----2------4-----9----|
G|---8----9----11----4-----6-----8-----3------5-----10---|
D|--(9)--(9)--(11)--(6)---(6)---(8)---(4)----(6)---(11)--|
A|--(9)--(7)--(9)---(6)---(4)---(6)---(4)----(6)---(11)--|
E|--(7)--(7)--(9)---(4)---------------(2)----(4)---(9)---|
                 Accordi ska  

   B   E F#(II)  F#   G#  G#(XI)   C#   D#
e|-----------------------------------------|
B|-----------------------------------------|
G|-----9---------11---------13-----6----8--|
D|-9---9---4-----11---6-----13-----6----8--|
A|-9---7---4-----9----6-----11-----4----6--|
E|-7-------2----------4--------------------|
           Accordi distorti

--------------------------------------------------------------------------


S: chitarra ska
P: chitarra punk


INTRO:
(ritmo ska)

e|--------------------------------------------|
B|--------------------------------------------|
G|--------------------------------------------|
D|----9--9-9--9--6----------------------------|
A|------------------------6--6-6--------------|
E|---------------------------------9-7--------|
    B         E         F#         B

e|--------------------------------------------|
B|--------------------------------------------|
G|--------------------------------------------|
D|----9--9-9--9--6----------------------------|
A|------------------------6--6-6--------------|
E|-------------------------------9-7\---------|
    B         E         F#         B


STROFA 1:

(ritmo ska)

E             F#             B   
Son qui che aspetto ormai da ore, 

E            F#        B 
non trovo un posto per salir

E       F#                B     
è tutto stretto in sto grigiore, 

S: E           F#            G#m 
P: E..         F#..          G#(XI)..
   finchè un motivo trovo in te



PRERITORNELLO:

S: [B]          [B]        C#(IX)    F#
P: [B]          [B]        C#..      F#(II)..
   vedo un mondo a colori, per poter volar

S: E          F#               B   E       F#           B  
P: E..        F#..             B.. E..     F#..         B..
   vedo tutto chiaro insieme a te, è tutto nuovo sai perché

S: E          F#         D#       E          E          F#  [F#]
P: E          F#         D#       E          E(p.m.)    F#  [F#]
   certe cose tu le puoi cambiare se lo vuoi basta poco sai



STACCO: come INTRO



STROFA 2:

(ritmo ska)

E              F#             B  
mi dichiaro in cerca di un sorriso, 

E              F#        B
lei mi fissa e poi dice "mah"

E         F#          B           
potresti avere una speranza",

S: E           F#            G#m 
P: E..         F#..          G#(XI)..
   altre tre ore ad aspettar



PRERITORNELLO: come sopra



STACCO (chiarra punk a colpi):

G#          D#         C#           D#    
provo nuove sensazioni riesco a guardare



RITORNELLO (chitarra ska + chitarra punk, x2):

          G#            D#
sempre di piu’ vivo per te

          C#              D#
sempre di piu’ io penso a te 



STACCO e ASSOLO (chiarra punk a colpi, x2):

G#  D#  C#   D#  



STACCO (chiarra punk in p.m.):

G#          D#         C#           D#    
provo nuove sensazioni riesco a guardare



RITORNELLO (chitarra ska + chitarra punk, x4):

          G#            D#
sempre di piu’ vivo per te

          C#              D#
sempre di piu’ io penso a te 



OUTRO:

sempre di piu’..

  (ripetere  più volte l'ottava)
e|-----------------|
B|---9-------------|
G|-----------------|
D|---6-------------|
A|-----------------|
E|-----------------|
   G# D# C# D# [G#]   (chitarra punk a colpi)
COMMENTA QUESTA TABLATURA
Devi avere JavaScript attivato per poter commentare! (misura antispam)