IndyTab Logo

BETA VERSION - 321 TABS DISPONIBILI

Cerca una tablatura nel nostro archivio:

Gruppo Canzone


Elenco dei gruppi presenti su IndyTab
Lista di tutte le tablature di IndyTab
DISCLAIMER
Questa tablatura rappresenta l'interpretazione della canzone da parte dell'autore. Può essere usata per scopi di studio, insegnamento e ricerca.

La tab è liberamente riproducibile in forum, blog, siti web (ad eccezione degli archivi di tablature online) e stampabile. Non è obbligatorio ma molto gradito citare la fonte (cioè IndyTab), meglio con un link di rimando al nostro sito.
ACCORDATORE
Per accordare la tua chitarra puoi usare il nostro accordatore online
TAB REQUEST
Stai cercando una tablatura? Suggeriscila compilando il modulo sottostante!

Gruppo
Titolo
Tua Mail

(la tua mail verrà usata per ricontattarti quando la tablatura sarà online)
DELLO STESSO GRUPPO

Punkreas // Il Vicino

Tablatura tratta dall'album: 90-93

(clicca qui per la legenda)

(clicca qui per il video)

     C   Am  F   G       C   E    F    G
e|---8---5---1---3---|---------------------|
B|---8---5---1---3---|---------------------|
G|---9---5---2---4---|-------9---10---12---|
D|--10---7---3---5---|--10---9---10---12---|
A|--10---7---3---5---|--10---7----8---10---|
E|---8---5---1---3---|---8-----------------|
        strofa             ritornello


--------------------------------------------------------------------------


RIFF1:
e|------------------|
B|------------------|
G|--0--2--0---------|
D|------------------|
A|------------------|
E|------------------|

RIFF2:
e|------------------|
B|------------------|
G|------------------|
D|--0h2--0----------|
A|----------2-------|
E|------------------|

RIFF3:
e|------------------|
B|------------------|
G|--0--2--4---------|
D|------------------|
A|------------------|
E|------------------|


INTRO:
C Am F RIFF1
C Am F RIFF2
C Am F RIFF1 + RIFF3
C Am F RIFF2


STROFA:

C              Am           F       RIFF1
Il mio sogno è sempre stato fare il benzinaio

C            Am          F           RIFF2
e cospargere di benza il vicino e il suo granaio

C            Am           F            RIFF1
appiccare il fuoco e poi alimentar col grezzo

C            Am             F           RIFF2
e vedrai che prima o poi lo toglierò di mezzo



RITORNELLO:

C           E          F            G
Il vicino è mio nemico non lo posso sopportare

C          E             F          G
in un modo o nell' altro io lo devo eliminare

C         E              F          G
al vicino puzza il fiato e gli puzzano le ascelle

C           E           F           G
sono queste le due cose che mi rendono ribelle



STACCO:

C Am F RIFF1
C Am F RIFF2
C Am F RIFF1 + RIFF3
C Am F RIFF2



STROFA:

C              Am           F       RIFF1
Il mio sogno è sempre stato fare lo spazzino

C          Am         F           RIFF2
e riempire di rifiuti il giardino del vicino

C          Am            F           RIFF1
dopo tutto questo so che lui si lamentava

C            Am           F          RIFF2
ma nel sacco lo mettevo e lo portavo su alla cava



RITORNELLO:
(come sopra)


STACCO:
(sugli accordi dell'intro, suonato da un kazoo)
e|-------------------------------------------------------|
B|-------------------------------------------------------|
G|-9-9-7-9-7-9-7-/9-/9-9-7------9-9-7-9-7------9-9-7-----|
D|----------------------------------------10-7-----------|
A|-------------------------------------------------------|
E|-------------------------------------------------------|

e|--------------------------------------------------------------|
B|--------------------------------------------------------------|
G|----------/9-/9-/9-9-9-7----5-5---5-5---5----5-5-5---5-5---5\-|
D|-----7-10-----------------------7-----7---7--------7-----7----|
A|--10----------------------------------------------------------|
E|--------------------------------------------------------------|


RITORNELLO:
(come sopra)


OUTRO:
C..
VIDEO

Se il video non dovesse essere più disponibile scrivi a indytab@googlemail.com. Grazie!
COMMENTI
17/6/14 16:51, ppp:
jooudtgwdu8wgd8iwjkhrfeorfho3r3ohfouf

COMMENTA QUESTA TABLATURA
Devi avere JavaScript attivato per poter commentare! (misura antispam)