IndyTab Logo

BETA VERSION - 321 TABS DISPONIBILI

Cerca una tablatura nel nostro archivio:

Gruppo Canzone


Elenco dei gruppi presenti su IndyTab
Lista di tutte le tablature di IndyTab
DISCLAIMER
Questa tablatura rappresenta l'interpretazione della canzone da parte dell'autore. Può essere usata per scopi di studio, insegnamento e ricerca.

La tab è liberamente riproducibile in forum, blog, siti web (ad eccezione degli archivi di tablature online) e stampabile. Non è obbligatorio ma molto gradito citare la fonte (cioè IndyTab), meglio con un link di rimando al nostro sito.
ACCORDATORE
Per accordare la tua chitarra puoi usare il nostro accordatore online
TAB REQUEST
Stai cercando una tablatura? Suggeriscila compilando il modulo sottostante!

Gruppo
Titolo
Tua Mail

(la tua mail verrà usata per ricontattarti quando la tablatura sarà online)
DELLO STESSO GRUPPO

Punkreas // I Chiromanti

Tablatura tratta dall'album: Paranoia E Potere

(clicca qui per la legenda)

(clicca qui per il video)

    G  B  C  D  F
e|-------------------|
B|-------------------|
G|-----4--5--7-------|
D|--5--4--5--7--3----|
A|--5--2--3--5--3----|
E|--3-----------1----|


--------------------------------------------------------------------------


INTRO:
(accordi normali)
G B D C G B D

e|--------------------------------------|
B|--------------------------------------|
G|-/12-12-12-12-12-12---7-7-7---5-4-----|
D|----------------------------------5---|
A|--------------------------------------|
E|--------------------------------------|
   G      B        D       C        G
e|--------------------------------------|
B|--------------------------------------|
G|-/12-12-12--7-4-7---7-7-7---5-4-------|
D|----------------------------------5---|
A|--------------------------------------|
E|--------------------------------------|
          B       D



STROFA:
(palm muted)

G               (C)F              (D)G
Già dai secoli passati erano perseguitati

               (C)F             (D)G
e come eretici venivano bruciati

              (C)F                        (D)G
da dei giudici severi che la chiesa d'oggi e ieri

                (C)F              
ha da sempre proclamato giustizieri.

(accordi normali)

G            (C)    F     
Non si legge piu la mano

     D              G
l'amuleto e il talismano

           (C)   F            D     G
han turbato seriamente il vaticano

             (C)  F
questa fede è una sola

     D              G
devi prenderla in parola

            (C) D
o alla fine la tua anima non vola.



RITORNELLO:
(accordi normali)

G          B D      C             G    B D
Per questo     preferisco i chiromanti

                       G           B               D
che si trovan senza impegno soprattutto senza il segno

         C             G           B            D
di una croce sporca e falsa dove tutti dietro trovano rifugio.



STROFA:
(palm muted)

G            (C)F                   (D)G
Ora do la mia fiducia al poter paranormale

               (C)F                    (D)G
alla forza dei tarocchi ad un segno zodiacale

                 (C)F                        (D)G
spero sia l'alternativa a chi ci ha sempre ordinato,

               (C)F
sia che fosse un cardinale od un organo di stato.

(accordi)

G            (C)   F 
Voglio usare la magia

      D             G
la magia ma quella nera

             (C)  F         D          G
per poterli eliminare al calare della sera

            (C)   F
proverò con la macumba

       D               G
coi feticci e gli spilloni

            (C)  D                  (C)
per potermi liberare da codesti zoticoni.



PONTE:
C G F (C) G
C G F



RIPETERE IL RITORNELLO



STACCO E SOLO:
G..
G(p.m) F(p.m) x2

e|--------------------------------------------------|
B|--------------------------------------------------|
G|--5b-5b-5b-5p3-------5b-5b-5b-5p3-----------------|
D|---------------5------------------5---------------|
A|--------------------------------------------------|
E|--------------------------------------------------|
    G(p.m)              F(p.m)

e|----------------------------------15~-------------|
B|------------------------------15~-----------------|
G|--17b-17b-17b-17p15-------------------------------|
D|--------------------17----17~---------------------|
A|--------------------------------------------------|
E|--------------------------------------------------|
    G(p.m)                  F(p.m)



RIPETERE IL RITORNELLO



OUTRO:
C G F (C) G
C G F(ripetuto più volte) [G]
VIDEO

Se il video non dovesse essere più disponibile scrivi a indytab@googlemail.com. Grazie!
COMMENTA QUESTA TABLATURA
Devi avere JavaScript attivato per poter commentare! (misura antispam)