IndyTab Logo

BETA VERSION - 321 TABS DISPONIBILI

Cerca una tablatura nel nostro archivio:

Gruppo Canzone


Elenco dei gruppi presenti su IndyTab
Lista di tutte le tablature di IndyTab
DISCLAIMER
Questa tablatura rappresenta l'interpretazione della canzone da parte dell'autore. Può essere usata per scopi di studio, insegnamento e ricerca.

La tab è liberamente riproducibile in forum, blog, siti web (ad eccezione degli archivi di tablature online) e stampabile. Non è obbligatorio ma molto gradito citare la fonte (cioè IndyTab), meglio con un link di rimando al nostro sito.
ACCORDATORE
Per accordare la tua chitarra puoi usare il nostro accordatore online
TAB REQUEST
Stai cercando una tablatura? Suggeriscila compilando il modulo sottostante!

Gruppo
Titolo
Tua Mail

(la tua mail verrà usata per ricontattarti quando la tablatura sarà online)
DELLO STESSO GRUPPO

Derozer // Frenesia

Tablatura tratta dall'album: Di Nuovo In Marcia

(clicca qui per la legenda)

     C#    E    A     F#   B     F#(IX)  D#     G#  
e|----------------------------------------------------------|
B|----------------------------------------------------------|
G|---6-----9---------------4------11-----8------------------|
D|---6-----9----7-----4----4------11-----8------6-----------|
A|---4-----7----7-----4----2------9------6------6-----------|
E|--------------5-----2-------------------------4-----------|


--------------------------------------------------------------------------

STROFA 1:

C#                 E 
Viviamo nella frenesia

                         A 
ti compro e poi ti butto via

                        F#    B 
tutto invecchia in soli due minuti

C#                   E  
non c'è nessuna garanzia

                      A 
qualunque prodotto tu sia

                          F#     
ti sfrutto quanto serve e poi


RITORNELLO:

   B     C#    E 
ti butto via

         F#(IX) 
ti butto via


RIFF (x4):

e|------------------|
B|------------------|
G|------------------|
D|------7--6--------|
A|------------------|
E|------------------|


         C#    E 
ti butto via

         F#(IX) 
ti butto via

RIFF: come sopra, sempre x4


STROFA 2:

C#                     E      (D#)
Un nuovo modello di te stesso

A                      F#    B 
ben presto ti rimpiazzerà

C#                   E              (D#)
più bello e ricco di nuove funzioni

A                     B(p.m.)       [B]
di te nessuno mai più si ricorderà


RITORNELLO:

     C#   A  E  (F#(IX)) D# 
Frenesia

     C#   A  F#  B 
Frenesia

     C#   A  E  (F#(IX)) D# 
Frenesia

     C#   A  G#  
Frenesia


Sotto al ritornello viene ripettuto questo riff:

     |--------- x3 -----------|
e|--------------------------------------------------------------|
B|------6-----6-----6-6---8-5------------6-------6--------------|
G|---/7----/7-----7-------------------/7------/7----5-----------|
D|--------------------------------------------------------------|
A|--------------------------------------------------------------|
E|--------------------------------------------------------------|
 

ASSOLO:

e|--------------------------------------7-5-4-5-4h5p4-----------|
B|----------7------------7-9----------7-------------------------|
G|----6-8-9--6-----6-8-9--------6-8-9---------------------------|
D|--------------------------------------------------------------|
A|--------------------------------------------------------------|
E|--------------------------------------------------------------|
             C#            E            A       F#    B 

e|--------------------------------------7-5-4-5-4h5p4---5-------|
B|----------7------------7-9----------7---------------7---------|
G|----6-8-9--6-----6-8-9--------6-8-9---------------------------|
D|--------------------------------------------------------------|
A|--------------------------------------------------------------|
E|--------------------------------------------------------------|
             C#            E            A       F#      B 

e|---/9-9--9-7-7--7-5-5--5-4-4----7-5-4-7-5-4-------------------|
B|--------------------------------------------7-5-4-------------|
G|--------------------------------------------------------------|
D|--------------------------------------------------------------|
A|--------------------------------------------------------------|
E|--------------------------------------------------------------|
      C#            E             A               F# 

e|--------------------------------------------------------------|
B|----------7-------------------7----------------------7--------|
G|----6-8-9-----6h8h9-6---6-8-9---8----6h8h9-6---6-8-9----------|
D|--------------------------------------------------------------|
A|--------------------------------------------------------------|
E|--------------------------------------------------------------|
      B         C#                E                

e|--------------------------------------------------------------|
B|----10-9-7-9-7---7--------------------------------------------|
G|---------------9---9-8-9-8------------------------------------|
D|---------------------------9-11-------------------------------|
A|--------------------------------------------------------------|
E|--------------------------------------------------------------|
      A            F#    B 


STROFA 2: 

C#                     E      (D#)
Un nuovo modello di te stesso

A                      F#    B 
ben presto ti rimpiazzerà

C#                   E              (D#)
più bello e ricco di nuove funzioni

A                     B(p.m.)       [B]
di te nessuno mai più si ricorderà


RITORNELLO:

     C#   A  E  (F#(IX)) D# 
Frenesia

     C#   A  F#  B 
Frenesia

     C#   A  E  (F#(IX)) D# 
Frenesia

     C#   A  G#  
Frenesia


OUTRO:

C#..
COMMENTA QUESTA TABLATURA
Devi avere JavaScript attivato per poter commentare! (misura antispam)