IndyTab Logo

BETA VERSION - 321 TABS DISPONIBILI

Cerca una tablatura nel nostro archivio:

Gruppo Canzone


Elenco dei gruppi presenti su IndyTab
Lista di tutte le tablature di IndyTab
DISCLAIMER
Questa tablatura rappresenta l'interpretazione della canzone da parte dell'autore. Può essere usata per scopi di studio, insegnamento e ricerca.

La tab è liberamente riproducibile in forum, blog, siti web (ad eccezione degli archivi di tablature online) e stampabile. Non è obbligatorio ma molto gradito citare la fonte (cioè IndyTab), meglio con un link di rimando al nostro sito.
ACCORDATORE
Per accordare la tua chitarra puoi usare il nostro accordatore online
TAB REQUEST
Stai cercando una tablatura? Suggeriscila compilando il modulo sottostante!

Gruppo
Titolo
Tua Mail

(la tua mail verrà usata per ricontattarti quando la tablatura sarà online)
DELLO STESSO GRUPPO

Persiana Jones // Spacco Tutto

Tablatura tratta dall'album: Puerto Hurraco

(clicca qui per la legenda)

(clicca qui per il video)

      G    C     A    D     Em        G5    C5      A5      D5
e|----3----3-----5----5-----7-------|-------------------------------|
B|----3----5-----5----7-----8-------|-------------------------------|
G|----4----5-----6----7-----9-------|--------5-------2-------7------|
D|----5----5-----7----7-----9-------|--5-----5-------2-------7------|
A|----5----3-----7----5-----7-------|--5-----3-------0-------5------|
E|----3----3-----5----5-----7-------|--3----------------------------|
     
      Accodi per la parte ska             Accordi distorti 

--------------------------------------------------------------------------

INTRO (Solo chitarra distorta):

e|--------------------------------------------------------------|
B|--------------------------------------------------------------|
G|--------------------------------------------------------------|
D|----------------5-----------------------------5---------------|
A|----5-----------3(p.m.)---2-3--5--------------3(p.m.)--2-3----|
E|----3(p.m.)--------------------3(p.m.)------------------------|

      Dimmi cosa  sai di cosa ho fatto e perché mai

e|--------------------------------------------------------------|
B|--------------------------------------------------------------|
G|--------------------------------------------------------------|
D|-------------------5---------------2-2---------7--------------|
A|----5--------------3(p.m.)---2-3-----0(p.m.)---5(p.m.)--------|
E|----3(p.m.)---------------------------------------------------|

      ti ho nascosto tutto ed ora    non mi fermerai


PRESTROFA (chitarra non distorta):

G  C  (x3)
A  D   (anche chitarra distorta)   


STROFA:

Una chitarra non distorta fa il giro come per il prestrofa.
L'altra chitarra, con power accordi distorti, suona solo qualche passaggio:


G             C         G               C          (G5)
Mi succede sempre così, se una cosa non mi va giù

G            C           A5                  D5   
una reazione normale che non riesco a controllar

G                 C           G              C        (G5)
se io sbaglio non tocca a te, non puoi certo giudicar

G             C         A5             D5   
hai sbagliato anche tu, ancor prima di me



RITORNELLO:

Chitarra ska:

C   G   D                   Em 
Oohoo   spacco tutto non mi puoi fermare

C   G   D             Em 
Oohoo   non ne voglio più parlare

C   G   D                   Em 
Oohoo   spacco tutto non mi puoi fermare

C   G   D       
Oohoo   

Chitarra distorta:

                          (x3)
e|--------------------------------------------------------------|
B|--------------------------------------------------------------|
G|--------------------------7---7---7----7------9---9---9-9-----|
D|------------------5--5----7---7---7----7------9---9---9-9-----|
A|---2h3-3-3-2h3-3--5--5----5---5---5----5------7---7---7-7-----|
E|------------------3--3----------------------------------------|
     
     Oohoo                  spacco tutto non mi puoi fermare..

Ultimo giro del ritornello:
                           |---x5---|  
e|-------------------------------------------|
B|-------------------------------------------|
G|-------------------------------------------|
D|------------------5--5---------------------|
A|---2h3-3-3-2h3-3--5--5-----4h5-5-----------|
E|------------------3--3---------------------|


STACCO:

Come il PRESTROFA, x2


STROFA 2 (Nella stessa modalitá della STROFA 1):

G               C           G          C        (G5)
certo penso che non si può, reagire sempre così

G                  C         A            D 
d'ora in avanti forse potrò, limitarmi un po'

G            C        G            C      (G5)
spacco tutto solo se, non lo posso evitar

G               C         A              D 
dico: no! ma ci penso già io lo voglio rifar!


RITORNELLO: come sopra


STACCO (solo chitarra distorta):

G5  [C5] (x3)

fare un pick slide 

A5  D5 

G5  [C5] (x3, con pennate stoppate)

A5  D5 


RITORNELLO (chitarra distorta come sopra):

C   G   D                   Em 
Uohoo   spacco tutto non mi puoi fermare

C   G   D             Em 
Uohoo   non ne voglio più parlare

C   G   D                   Em 
Uohoo   spacco tutto non mi puoi fermare

C   G   D             Em         [Em]
Uohoo   non ne voglio più parlare
VIDEO

Se il video non dovesse essere più disponibile scrivi a indytab@googlemail.com. Grazie!
COMMENTA QUESTA TABLATURA
Devi avere JavaScript attivato per poter commentare! (misura antispam)