IndyTab Logo

BETA VERSION - 321 TABS DISPONIBILI

Cerca una tablatura nel nostro archivio:

Gruppo Canzone


Elenco dei gruppi presenti su IndyTab
Lista di tutte le tablature di IndyTab
DISCLAIMER
Questa tablatura rappresenta l'interpretazione della canzone da parte dell'autore. Può essere usata per scopi di studio, insegnamento e ricerca.

La tab è liberamente riproducibile in forum, blog, siti web (ad eccezione degli archivi di tablature online) e stampabile. Non è obbligatorio ma molto gradito citare la fonte (cioè IndyTab), meglio con un link di rimando al nostro sito.
ACCORDATORE
Per accordare la tua chitarra puoi usare il nostro accordatore online
TAB REQUEST
Stai cercando una tablatura? Suggeriscila compilando il modulo sottostante!

Gruppo
Titolo
Tua Mail

(la tua mail verrà usata per ricontattarti quando la tablatura sarà online)
DELLO STESSO GRUPPO

Shandon // Vampire Girl

Tablatura tratta dall'album: Nice Try

(clicca qui per la legenda)

     E     B     A        E    B    A    C#
e|---7-----7-----5----|-----------------------|
B|---9-----7-----5----|-----------------------|
G|---9-----8-----6----|---9--------------6----|
D|--(9)---(9)---(7)---|---9----9----7----6----|
A|--(7)---(9)---(7)---|---7----9----7----4----|
E|--------(7)---(5)---|--------7----5---------|
    Accordi ska            Accordi punk

--------------------------------------------------------------------------


INTRO:
(accordi punk)

(E) (B) A (A) (B) E x2

  (* ripetere più volte)
e|--------------------------------------------------|
B|---------------------------12---------10--9-------|
G|-11b-11b-9*--9--8--9*--11b----11b-9*---------9*---|
D|--------------------------------------------------|
A|--------------------------------------------------|
E|--------------------------------------------------|
   (E) (B) A  (A)(B) E   (E) (B) A      (A)(B) E



STROFA 1:
(ritmo ska)

E                         B
Look inside you know I've been divided

          A                    B
Between myself and I about how feeling love

E                        B 
Needed someone who found out the strenght

       A              B
That I got inside and let me then

  E                        B
Believe at least that love really exist

          A                        B
And I can cope with it and I could live for it

     E                            B
I'll give my blood well I'll give every source

           A            B          A(punk)
To feed it everyday and have it anyway



PRE-RITORNELLO:
(accordi punk)

         B            E  C# 
But then came into my soul

e|--------------------------------------|
B|--10---------7---------------9--------|
G|--------------------------------------|
D|--7----------4---------------6--------|
A|--------------------------------------|
E|--------------------------------------|
    A          B               E
    The anemic girl in need of blood

e|--------------------------------------|
B|--10----7---------12------9-----------|
G|--------------------------------------|
D|--7-----4---------9-------6-----------|
A|--------------------------------------|
E|--------------------------------------|
    A     B         E       C# 
    And I knew just what to do

A(p.m.)                   B  [B]
I held my neck out to her tooth



RITORNELLO (X2):
(accordi punk)

(E)(B) A (A) (B)  E   
Ooooooooh vampire girl

(E) (B) A (A) (B) E
Ooooooooh suck my blood



STROFA 2:
(ritmo ska)

E                      B
She bite me and I went on realizin'

       A                       B
That I wantad this going every day and night

   E                       B
My neck is bleedin' but no blood is flowing

         A                   B
But it's something else that makes me feel as

E                B
I am riding as a bull in the heather

        A                      B  
As if I was bent seather now I feel in heaven

E                   B
She put honey in my ached body

     A              B 
So I turned into an house-hold master



PRE-RITORNELLO:
(accordi punk)

A          B            E  C# 
  But then came into my soul

e|--------------------------------------|
B|--10---------7---------------9--------|
G|--------------------------------------|
D|--7----------4---------------6--------|
A|--------------------------------------|
E|--------------------------------------|
    A          B               E
    The anemic girl in need of blood

e|--------------------------------------|
B|--10----7---------12------9-----------|
G|--------------------------------------|
D|--7-----4---------9-------6-----------|
A|--------------------------------------|
E|--------------------------------------|
    A     B         E       C# 
    And I knew just what to do

A(p.m.)                   B  [B]
I held my neck out to her tooth



RITORNELLO FINALE:
(accordi punk)

(E)(B) A (A) (B)  E   
Ooooooooh vampire girl

(E) (B) A (A) (B) E
Ooooooooh suck my blood

(E)(B) A (A) (B)  E   
Ooooooooh vampire girl

e|------------------------------------------|
B|---------------------------12-12-12-12----|
G|---------------------------9--9--9--9-----|
D|------------------------------------------|
A|------------------------------------------|
E|------------------------------------------|
   (E) (B) A (A) (B) E       [E][E][E][E]
   Ooooooooh suck my blood
COMMENTA QUESTA TABLATURA
Devi avere JavaScript attivato per poter commentare! (misura antispam)