IndyTab Logo

BETA VERSION - 321 TABS DISPONIBILI

Cerca una tablatura nel nostro archivio:

Gruppo Canzone


Elenco dei gruppi presenti su IndyTab
Lista di tutte le tablature di IndyTab
DISCLAIMER
Questa tablatura rappresenta l'interpretazione della canzone da parte dell'autore. Può essere usata per scopi di studio, insegnamento e ricerca.

La tab è liberamente riproducibile in forum, blog, siti web (ad eccezione degli archivi di tablature online) e stampabile. Non è obbligatorio ma molto gradito citare la fonte (cioè IndyTab), meglio con un link di rimando al nostro sito.
ACCORDATORE
Per accordare la tua chitarra puoi usare il nostro accordatore online
TAB REQUEST
Stai cercando una tablatura? Suggeriscila compilando il modulo sottostante!

Gruppo
Titolo
Tua Mail

(la tua mail verrà usata per ricontattarti quando la tablatura sarà online)
DELLO STESSO GRUPPO

Porno Riviste // Non Ti Vedevo

Tablatura tratta dall'album: Cosa Facciamo?

(clicca qui per la legenda)

   C(III) F(I) Bb(I) C   F   Bb
e|---------------------------------|
B|---------------------------------|
G|--5-----------3--------10--------|
D|--5------3----3----10--10--8-----|
A|--3------3----1----10--8---8-----|
E|---------1---------8-------6-----|


--------------------------------------------------------------------------


INTRO:
(in palm muted, suonando più volte ogni nota)
e|-----------------------------------------------------------|
B|-----------------------------------------------------------|
G|-----------------------------------------------------------|
D|-----------------------------------------------------------|
A|---3----5----7----8-7-5-3----5-3-5-3----8-7-5--------------|
E|-----------------------------------------------------------|

(ora ottave normali)
e|-----------------------------------------------------------|
B|-----------------------------------------------------------|
G|---5---/7---/9----10-9-7-5---/7-5-7-5----10-9-7-5----------|
D|-----------------------------------------------------------|
A|---3---/5---/7----8--7-5-3---/5-3-5-3----8--7-5-3----------|
E|-----------------------------------------------------------|
     C(III)    F           Bb         F

e|-----------------------------------------------------------|
B|-----------------------------------------------------------|
G|---5---/7---/9----10-9-7-5---/7-5-7-5----------------------|
D|-----------------------------------------------------------|
A|---3---/5---/7----8--7-5-3---/5-3-5-3----------------------|
E|-----------------------------------------------------------|
     C(III)    F           Bb         F..



STROFA:
(palm muted)

C(III)
Guardavo troppo indietro ormai 

  F(I)
urlavo al buio che cazzo vuoi 

      Bb(I)
e non ti vedevo 

        F(I)
ma dove sei? 

   C(III)
crescevo e non me ne accorgevo 

  F(I)
e non capivo che ero vivo 

Bb(I)                  F(accordo aperto)  
dalla luce degli occhi miei 



RITORNELLO:
(da qui poweraccordi aperti)

            C
negli occhi miei 

          F
tu già lo sai 

           Bb
che c'è un perchè 

               F
ma non sai cos'è 

          C
le mie speranze 

         F
le mie pazienze 

          Bb
son già finite 

              F
ma non sai perchè 



STROFA:

   C
giocavo coi miei sogni ormai 

  F
deluso e perso nei miei guai 

      Bb
e non ti vedevo 

        F
ma come sei? 

   C
crescevo e non me ne accorgevo 

  F
e non capivo che dormivo 

Bb                     F
dalla luce negli occhi miei 



RITORNELLO:
Ripetere il ritornello.



PONTE:

                  C  F  Bb  F
c'è rabbia dentro me 

                  C  F  Bb [F] [F] [F][F]
c'è rabbia dentro me 



SOLO:
e|-------12-12h13-12----12h13-12----12h13-12----12-13-15-13-12----|
B|----13-------------13----------13----------13-------------------|
G|-12-------------------------------------------------------------|
D|----------------------------------------------------------------|
A|----------------------------------------------------------------|
E|----------------------------------------------------------------|
            C                       F

e|-13-12h13p12----12-12-13-12--------|
B|-------------13-------------13~----|
G|-----------------------------------|
D|-----------------------------------|
A|-----------------------------------|
E|-----------------------------------|
   Bb                         F

e|-------12-12h13-13-12-12----12h13-13-12-12--------|
B|----13-------------------13----------------13-----|
G|-12-----------------------------------------------|
D|--------------------------------------------------|
A|--------------------------------------------------|
E|--------------------------------------------------|
            C

e|---12h13-13-12-12----12-13-15-13-12----|
B|------------------13-------------------|
G|---------------------------------------|
D|---------------------------------------|
A|---------------------------------------|
E|---------------------------------------|
     F

e|-13-12h13p12----12-12-13-12--------|
B|-------------13-------------13~----|
G|----------------------------12~----|
D|-----------------------------------|
A|-----------------------------------|
E|-----------------------------------|
   Bb                         F



STROFA:
(palm muted)

   C(III)
ma adesso che ho capito sai 

  F(I)
lasciami stare se mi vuoi 

     Bb(I)
o stammi lontano 

          F(I)
sennò son guai 

    C(III)
non dire palle non le bevo 

  F(I)
ormai ho capito che son vivo 

Bb(I)                  F(accordo aperto) 
dalla luce negli occhi miei 



RITORNELLO:
Ripetere il ritornello.



PONTE FINALE:

                  C  F  Bb  F
c'è rabbia dentro me

                  C  F  Bb
c'è rabbia dentro me

[F][F] [F][F][F] [F][F][F] [F][F][F] [F] C..
COMMENTA QUESTA TABLATURA
Devi avere JavaScript attivato per poter commentare! (misura antispam)