IndyTab Logo

BETA VERSION - 321 TABS DISPONIBILI

Cerca una tablatura nel nostro archivio:

Gruppo Canzone


Elenco dei gruppi presenti su IndyTab
Lista di tutte le tablature di IndyTab
DISCLAIMER
Questa tablatura rappresenta l'interpretazione della canzone da parte dell'autore. Può essere usata per scopi di studio, insegnamento e ricerca.

La tab è liberamente riproducibile in forum, blog, siti web (ad eccezione degli archivi di tablature online) e stampabile. Non è obbligatorio ma molto gradito citare la fonte (cioè IndyTab), meglio con un link di rimando al nostro sito.
ACCORDATORE
Per accordare la tua chitarra puoi usare il nostro accordatore online
TAB REQUEST
Stai cercando una tablatura? Suggeriscila compilando il modulo sottostante!

Gruppo
Titolo
Tua Mail

(la tua mail verrà usata per ricontattarti quando la tablatura sarà online)
DELLO STESSO GRUPPO

Porno Riviste // Un Insetto

Tablatura tratta dall'album: La Seconda Possibilità

(clicca qui per la legenda)

     A    D    E(0)     E(VII)   B    F#(IX)   F#(II) 
e|----------------------------------------------------------|
B|-------------------------------------11-------------------|
G|--------7---------------9------------11-------------------|
D|---7----7-----2---------9------9-----9--------4-----------|
A|---7----5-----2---------7------9--------------4-----------|
E|---5----------0----------------7--------------2-----------|


--------------------------------------------------------------------------


STROFA 1:

   A                             D 
Tu non sei punk non lo sei stato mai

  A                      D  
È inutile dici ma non lo fai

A                        D    
Logico pensi che tutto è facile

A                       D  
Utile se chiedo un uomo inutile


E(VII)(p.m.)                             D(p.m.) 
Vai di qui vai di là fatti una lampada e scappa

E(VII)(p.m.)                            D(p.m.)  D 
Di di sì di di no dimmi che a volte non basta


STROFA 2:

   A                             D(p.m.)
Tu non fai punk ma un sottofondo stupido

A                           D(p.m.)
Non sei tu sei una sostanza tossica

A                   D 
Utile non so cosa significa

A                  D  
Lucido sono pulito luccico


E(VII)(p.m.)                               D(p.m.) 
Vai di qui vai di là vai in un negozio poi scappa

E(VII)(p.m.)                         D(p.m.)  D 
Di di sì di di no vola nel vuoto poi sbatti


RITORNELLO:

     A    E(VII)                              
Un insetto  

        A    E(0) 
della famiglia

           A         E(VII) 
Che più ne schiaccio 

         A      E(0)  
E più mi piglia

     [A]  A   E(VII)                              
Un insetto 

        A    E(0) 
della famiglia

           A         E(VII) 
Che più ne schiaccio 

         A      E(0)  
E più mi piglia


ASSOLO:
     
     |------------- x2 -----------|
e|---------------------------------------------------------------------|
B|---------------------------------------------------------------------|
G|----9-7-6--------7-7-7-6-----------------------6-6--7-7--9--7-6------|
D|----------7-------------7-9-7-9-----------77-9------------------9----|
A|---------------------------------------------------------------------|
E|---------------------------------------------------------------------|
      A            D               E(VII)(p.m.)  D(VII)(p.m.)


    |------- in p.m. -------|
e|-------------------------------------------------------|
B|-------------------------------------------------------|
G|---9-7-6-7-6---6---------------------------------------|
D|-------------9---9-7-9-7-6---7-7-9-7-------------------|
A|-------------------------------------------------------|
E|-------------------------------------------------------|
     E(VII)(p.m.)                    D(VII)(p.m.)   D 


RITORNELLO: 

     A    E(VII)                              
Un insetto  

        A    E(0) 
della famiglia

           A         E(VII) 
Che più ne schiaccio 

         A      [E(0)] 
E più mi piglia


STACCO:

E(VII) 


STROFA 3:

   B                           E(VII) 
Tu non sei tu Non lo sei stato mai

        B                                  E(VII) 
La vita sceglie le vite un uomo non cambia mai

B                                  E(VII)(p.m.)
Già da bambino C’è chi piange se diventi come me

B(p.m.) 
Già da bambino già da bambino

[E(0)]
Già da bambino già da bambino


RITORNELLO: 

     B    F#(IX)                              
Un insetto  

        B     F#(II) 
della famiglia

           B         F#(IX)  
Che più ne schiaccio 

         B     F#(II)  
E più mi piglia

   [B] B  F#(IX) 
L’istinto

       [B] B  F#(II) 
La conoscenza

          [B] B  F#(IX) 
Mi spiace molto

         [B] B  F#(II) 
Sto bene senza


OUTRO:

B 
COMMENTA QUESTA TABLATURA
Devi avere JavaScript attivato per poter commentare! (misura antispam)