IndyTab Logo

BETA VERSION - 321 TABS DISPONIBILI

Cerca una tablatura nel nostro archivio:

Gruppo Canzone


Elenco dei gruppi presenti su IndyTab
Lista di tutte le tablature di IndyTab
DISCLAIMER
Questa tablatura rappresenta l'interpretazione della canzone da parte dell'autore. Può essere usata per scopi di studio, insegnamento e ricerca.

La tab è liberamente riproducibile in forum, blog, siti web (ad eccezione degli archivi di tablature online) e stampabile. Non è obbligatorio ma molto gradito citare la fonte (cioè IndyTab), meglio con un link di rimando al nostro sito.
ACCORDATORE
Per accordare la tua chitarra puoi usare il nostro accordatore online
TAB REQUEST
Stai cercando una tablatura? Suggeriscila compilando il modulo sottostante!

Gruppo
Titolo
Tua Mail

(la tua mail verrà usata per ricontattarti quando la tablatura sarà online)
DELLO STESSO GRUPPO

Porno Riviste // Io Sono Il Tuo Tipo

Tablatura tratta dall'album: Cosa Facciamo?

(clicca qui per la legenda)

(clicca qui per il video)

    A  F#  D  B  E  G#
e|----------------------|
B|----------------------|
G|---------7-----9------|
D|--7--4---7--9--9--6---|
A|--7--4---5--9--7--6---|
E|--5--2------7-----4---|


--------------------------------------------------------------------------


INTRO/CORO:
A F# D B E x2



STROFA:

A          F#
Non voglio più

    D            E
l'angoscia nello stomaco

A          F#
quando sei via

   D          E
mi sento così scomodo



PONTE:

D         E                A      G#/A
ma so che quando scende la notte

D       E            A    F#..  F#.. F#..
in un minuto sono da te.

D         E                 A      G#/A
Qualunque cosa adesso è più bella

D         
tu pensa solamente che

E
adesso sono qui con te.



CORO:
A F# D B E x2



STROFA:

A       F#
Pensavo che

   D             E
tu stessi su una nuvola

A          F#
ma qui con me

   D            E
mi sento poco stabile,



PONTE:

D         E                A      G#/A
ma so che si avvicina il momento

D         E               A   F#..  F#.. F#..
mi faccio bello e sono da te

D           E                 A      G#/A
Qualcuno in paese adesso è contento

D
tu pensa solamente che

E
adesso sono qui con te



RITORNELLO:

A           (D)    (A)       D       E
Sono il tuo tipo e adesso tu sei mia moglie

A           (D)    (A)       D       E
Sono il tuo tipo e adesso tu sei mia moglie

A           (D)    (A)       D       E
Sono il tuo tipo e adesso tu sei mia moglie

A           (D)    (A)       D..     E..
Sono il tuo tipo e adesso tu sei mia moglie



SOLO:
e|----------------------------------------------------------|
B|----------------------------------------------------------|
G|--------6-7-6---6-7-7/9-7-6-7-6---6-7---6h7-6----6h7-6----|
D|--7-7---------7-----------------9-------------9--------9--|
A|-<p.m.>---------------------------------------------------|
E|----------------------------------------------------------|
    A                   F#                  D

e|----------------------------|
B|----------------------------|
G|-6h7-6---6-7---6------------|
D|-------9---------9-7-6------|
A|----------------------------|
E|----------------------------|
    B            E

e|---------------------------------------------------------|
B|---------------------------------------------------------|
G|-------6-7-6---6-7-7/9-7-6-7-6---6-7--/9-9-9--/11-11-11--|
D|--7-7--------7-----------------9-------------------------|
A|-<p.m.>--------------------------------------------------|
E|---------------------------------------------------------|
    A                  F#                D

e|-----------------------------------------------|
B|-/9-9-9-/10-10-10---10-9-----9-----------------|
G|--------------------------11---11---9~\--------|
D|-----------------------------------------------|
A|-----------------------------------------------|
E|-----------------------------------------------|
                      B               E  A.. A..


STROFA:
(palm muted accentuando i colpi di passaggio)

A
Quando ti ho conosciuto

   F#
mi immaginavo che

   D
ti stavo sputtanando

       B        E
come sputtanavo me

    A
non so bene chi è Tommi

   F#
ma so che sta con te

   D
se chiudi gli occhi e viaggi

(da qui accordi normali)

     B              E
sono lì di fianco a te

   B           E
lì di fianco a te

   B           E..
lì di fianco a te



PONTE:

D         E                A      G#/A
Ma so che quando scende la notte

D       E            A   F#
in un minuto sono da te.

D         E                 A      G#/A
Qualunque cosa adesso è più bella

D
tu pensa solamente che

E
adesso sono qui con te



RITORNELLO:

A           (D)    (A)       D       E
Sono il tuo tipo e adesso tu sei mia moglie

A           (D)    (A)       D       E
Sono il tuo tipo e adesso tu sei mia moglie

A           (D)    (A)       D       E
Sono il tuo tipo e adesso tu sei mia moglie

A           (D)    (A)       D..     E..
Sono il tuo tipo e adesso tu sei mia moglie



OUTRO:
e|--------------------|
B|--------------------|
G|---7--6-------------|
D|--7------7--7/9-----|
A|--------------------|
E|--------------------|
                   [A]
VIDEO

Se il video non dovesse essere più disponibile scrivi a indytab@googlemail.com. Grazie!
COMMENTA QUESTA TABLATURA
Devi avere JavaScript attivato per poter commentare! (misura antispam)