IndyTab Logo

BETA VERSION - 321 TABS DISPONIBILI

Cerca una tablatura nel nostro archivio:

Gruppo Canzone


Elenco dei gruppi presenti su IndyTab
Lista di tutte le tablature di IndyTab
DISCLAIMER
Questa tablatura rappresenta l'interpretazione della canzone da parte dell'autore. Può essere usata per scopi di studio, insegnamento e ricerca.

La tab è liberamente riproducibile in forum, blog, siti web (ad eccezione degli archivi di tablature online) e stampabile. Non è obbligatorio ma molto gradito citare la fonte (cioè IndyTab), meglio con un link di rimando al nostro sito.
ACCORDATORE
Per accordare la tua chitarra puoi usare il nostro accordatore online
TAB REQUEST
Stai cercando una tablatura? Suggeriscila compilando il modulo sottostante!

Gruppo
Titolo
Tua Mail

(la tua mail verrà usata per ricontattarti quando la tablatura sarà online)
DELLO STESSO GRUPPO

Porno Riviste // Io Sono Veloce

Tablatura tratta dall'album: Cosa Facciamo?

(clicca qui per la legenda)

(clicca qui per il video)

    G  E  F#  A  C  D
e|----------------------|
B|----------------------|
G|---------------5--7---|
D|--5--2--4---7--5--7---|
A|--5--2--4---7--3--5---|
E|--3--0--2---5---------|


--------------------------------------------------------------------------


INTRO:
e|-------------------------------------------|
B|-----13-12-15-13-15-----13-12-15-13-15-----|
G|--12---------------------------------------|
D|---------------------14--------------------|
A|-------------------------------------------|
E|-------------------------------------------|
    G                  E

e|-----------12------------------------------|
B|-----13-12----15-13--12~----13~------------|
G|------------------------------~------------|
D|--10---------------------------------------|
A|-------------------------------------------|
E|-------------------------------------------|
    C                  D..    D..

e|-------------------------------------------|
B|-----13-12-15-13-15-----13-12-15-13-15-----|
G|--12---------------------------------------|
D|---------------------14--------------------|
A|-------------------------------------------|
E|-------------------------------------------|
    G                  E

e|-----------12------------------------------|
B|-----13-12----15-13--12~----13~\-----------|
G|---------------------12~----12~\-----------|
D|--10---------------------------------------|
A|-------------------------------------------|
E|-------------------------------------------|
    C                  D..    D..



STROFA:

G  A  C  D  x2

G      A    C       D
Sono veloce quasi come mi piace

G           A      C         D
ma è la tua faccia che illumina la scena

G         A    C        D
dimmi chi sono spiegami cosa penso
 
G               A   [C]
quando hai un nemico qualunque cosa ha senso.



PONTE:

E                       C
Non ho una vita niente passato

                      D     G (F#)
sono nato quando sei nato,

E                        C
solo un concetto siamo nemici

                        D  
non mi piace quello che dici, quello che dici



RITORNELLO:

[G]
   Ma adesso legami,

G          C            D
dai adesso legami e poi vai

[G]
pigliami a calci e poi

G           C            D
picchiami e lasciami nei guai.

E                        C
Che cazzo vuoi chi cazzo sei

D                 G            (G)(F#)
non ti conosco ma capisco cosa vuoi

E                           C
se alzi la voce l'alzo anch'io

[D]               [D][D]
   nessuna scusa,        nessuna scusa



STACCO:
Ripetere l'INTRO.



STROFA:
(solo basso)

g         a      c        d
Stiamo eseguendo il piano di qualcuno

g        a       c         d
non sono niente, ma tu non sei nessuno

g        a    c       d
stammi vicino facciamoci del male

g       a        [c]
sogno o vendetta, come concetto è uguale



PONTE:

E                          C
Stavo piangendo poi ho vomitato,

                              D      G (F#)
la tua faccia è appesa a ogni lato.

E                         C
Quanti nemici e noi siamo pochi

                         D
non c'è tempo niente più giochi niente più giochi



RITORNELLO:
Ripetere il RITORNELLO.



STACCO:
[D][G]
G  A  C  D  x4



RITORNELLO:

[E]                      C
Che cazzo vuoi chi cazzo sei

[D]                 G              (G)(F#)
non ti conosco ma capisco cosa vuoi

[E]                         C
se alzi la voce l'alzo anch'io

D
nessuna scusa, nessuna scusa



OUTRO:
G (F#) E A D
G (F#) E A [D] [D] G..  [G]
VIDEO

Se il video non dovesse essere più disponibile scrivi a indytab@googlemail.com. Grazie!
COMMENTA QUESTA TABLATURA
Devi avere JavaScript attivato per poter commentare! (misura antispam)