IndyTab Logo

BETA VERSION - 321 TABS DISPONIBILI

Cerca una tablatura nel nostro archivio:

Gruppo Canzone


Elenco dei gruppi presenti su IndyTab
Lista di tutte le tablature di IndyTab
DISCLAIMER
Questa tablatura rappresenta l'interpretazione della canzone da parte dell'autore. Può essere usata per scopi di studio, insegnamento e ricerca.

La tab è liberamente riproducibile in forum, blog, siti web (ad eccezione degli archivi di tablature online) e stampabile. Non è obbligatorio ma molto gradito citare la fonte (cioè IndyTab), meglio con un link di rimando al nostro sito.
ACCORDATORE
Per accordare la tua chitarra puoi usare il nostro accordatore online
TAB REQUEST
Stai cercando una tablatura? Suggeriscila compilando il modulo sottostante!

Gruppo
Titolo
Tua Mail

(la tua mail verrà usata per ricontattarti quando la tablatura sarà online)
DELLO STESSO GRUPPO

Porno Riviste // Cazzi Miei

Tablatura tratta dall'album: Cosa Facciamo?

(clicca qui per la legenda)

(clicca qui per il video)

    G#  C   C#   D#  F#
e|------------------------|
B|------------------------|
G|------5---6----8--------|
D|--6---5---6----8----4---|
A|--6---3---4----6----4---|
E|--4-----------------2---|

--------------------------------------------------------------------------
Un ringraziamento a Zio Konfa per la realizzazione di questa tab
--------------------------------------------------------------------------


STROFA 1:

   G#..                      C..
Pensando ai cazzi miei, sguazzavo nei miei guai 

         C#..          D#..              
io stavo camminando in una strada 

G#                  C
chiusa dentro me, e chiusa senza un perchè 

           C#            D#          C#       D#       C#       D# 
sentivo un'emozione e un'oppressione che Oooh ooh oooh ooh oooh ooh



RITORNELLO:

G#                        D# 
Sono perso nell'illusione di aver vinto una conclusione 

  F#          C#      D#    
e volo stanco come un corvo 

  G#                            D#
è meglio morto e non più ferito da un orgoglio che ormai è infinito 

F#             C#       D#    C#        D#       C#       D# 
sto scoppiando dentro o forse nooo Oooh ooh oooh ooh oooh ooh



STROFA 2:

   G#                       C
Pensando ai cazzi miei, guardavo dall'alto i guai 

             C#            D#
sull'orlo in cima al mondo come un pazzo 

   G#                     C
un passo e andavo giù, un salto e niente più 

           C#         D#            C#     D#       C#       D# 
niente più soluzioni, niente più tabù Oooh ooh oooh ooh oooh ooh



RITORNELLO:

G#           C#             F#               D#
Sono stufo voglio saltare e non guardarmi da subnormale 

G#               C#              F#       [D#]
son convinto di esserne uscito come i tagli 

               G#        C#       F#       D#
di un film sbiadito oooh ooh oooh ooh oooh ooh

G#        C#      F#    D#
oooh ooh oooh ooh oooh  ooh



SOLO:
e|----------------------------------------------------------|
B|--3h4-4-4-4-4-4------3h4--4-4-4-4-4--6-4------------------|
G|-----------------6-5------------------------6-5---6-5-----|
D|------------------------------------------------6---------|
A|----------------------------------------------------------|
E|----------------------------------------------------------|
      G#                 D#                   F# 

e|---------------------------------------3-3-3-3-3--4-3---3-4-3h4p3-----|
B|------------3h4-4-4-4-4-4---6-6-6-6-6-----------------6-----------6-4-|
G|--6-5-----5-----------------------------------------------------------|
D|------6-6-------------------------------------------------------------|
A|----------------------------------------------------------------------|
E|----------------------------------------------------------------------|
    C#          D#            G#                    D#                


e|-----------------------------------------|
B|----------------------------4-4--4--4----|
G|---5h6-5---6-5----6-5-----5--------------|
D|---------6------------6-6----------------|
A|-----------------------------------------|
E|-----------------------------------------|
    F#              C#        D#



PONTE:

      Comunque sono solo cazzi miei
e|-----------------------------------------|
B|-----------------------4-4-4-4-4-4-------|
G|----6--5-----6--5---6--------------6-5---|
D|----------6------------------------------|
A|-----------------------------------------|
E|-----------------------------------------|


      Comunque sono solo cazzi miei
e|-----------------------------------------|
B|-----------------------4-4-4-4-4-4-------|
G|----6--5-----6--5---6--------------6-5---|
D|----------6------------------------------|
A|-----------------------------------------|
E|-----------------------------------------|


  G#          C#         D#
Comunque sono solo cazzi miei


  G#          C#         D#
Comunque sono solo cazzi miei




STROFA 3:

       G#..                      C..
Ma guardando dall'alto i guai ci stavo pensando ormai 

          C#..          D#..
seduto in cima al mondo solo e stanco.



OUTRO:

G#   C    C#   D# 
Aaah ahah ahah uohoh oh 

G#   C    C#   D#                 G..  [G]
Aaah ahah ahah uohoh oh uohoh ooh ooh
VIDEO

Se il video non dovesse essere più disponibile scrivi a indytab@googlemail.com. Grazie!
COMMENTA QUESTA TABLATURA
Devi avere JavaScript attivato per poter commentare! (misura antispam)