IndyTab Logo

BETA VERSION - 321 TABS DISPONIBILI

Cerca una tablatura nel nostro archivio:

Gruppo Canzone


Elenco dei gruppi presenti su IndyTab
Lista di tutte le tablature di IndyTab
DISCLAIMER
Questa tablatura rappresenta l'interpretazione della canzone da parte dell'autore. Può essere usata per scopi di studio, insegnamento e ricerca.

La tab è liberamente riproducibile in forum, blog, siti web (ad eccezione degli archivi di tablature online) e stampabile. Non è obbligatorio ma molto gradito citare la fonte (cioè IndyTab), meglio con un link di rimando al nostro sito.
ACCORDATORE
Per accordare la tua chitarra puoi usare il nostro accordatore online
TAB REQUEST
Stai cercando una tablatura? Suggeriscila compilando il modulo sottostante!

Gruppo
Titolo
Tua Mail

(la tua mail verrà usata per ricontattarti quando la tablatura sarà online)
DELLO STESSO GRUPPO

Porno Riviste // Senza Limite

Tablatura tratta dall'album: Sogni, Incubi E... La Cosa Inutile

(clicca qui per la legenda)

    B  E  F#  G# F#(2) E(0)
e|--------------------------|
B|--------------------------|
G|-----9--11----------------|
D|--9--9--11--6----4----2---|
A|--9--7---9--6----4----2---|
E|--7---------4----2----0---|


--------------------------------------------------------------------------

ACCORDATURA:
Chitarra accordata mezzo tono sotto

--------------------------------------------------------------------------


INTRO:

B..       E..
Cala il sipario

       F#..
Mentre sto volando



STROFA:

B         E
Cala il sipario

       F#
Mentre sto volando

B            E
C'è un fuoco lento 

       F#
Che mi sta bruciando

B           E
C'è qualche cosa

    B      F#
Nel mio cervello

B           E     
Che esplode di emozioni

F#        B  E  F#
Senza limite 

          B  E  F# [F#]
Senza limite



STROFA:

B          E
Guardo nel buio 

         F#
Pesto oltre una siepe

B            E
C'è un gatto con le ali 

F#
Che mi insegue 

B        E     B
Migliaia di persone 

F#
Intorno a me 

B            E     
Che esplodon di emozioni

F#        B  E  F#
Senza limite

          B  E  F#
Senza limite



PONTE:

G#       F#(II)
Guardo i pensieri

      E(0)
Per descrivere 

G#         F#(II)    E(0)  
Non riesco più a sorridere

          B  E  F#
Senza limite

          B  E  F# [F#]
Senza limite



SOLO:
e|--------------------------------------|
B|--12-12-12-14-16-12-14-11----4x-------|
G|--------------------------------------|
D|--------------------------------------|
A|--------------------------------------|
E|--------------------------------------|
Ritmica: B in p.m.

e|--14-11-12-14-12----11-12-11-------11------------------|
B|-----------------14----------12-14----14-12-11-14------|
G|---------------------------------------------------2x--|
D|-------------------------------------------------------|
A|-------------------------------------------------------|
E|-------------------------------------------------------|
Ritmica: B E B F# 2x

|e|-----------11-12-11----11------------------------|
|B|--12-12-14----------14------7x---12-12-12-12-12--|
|G|-------------------------------------------------|
|D|-------------------------------------------------|
|A|-------------------------------------------------|
|E|-------------------------------------------------|
Ritmica: G# F#(II) E(0) 3x G# F#(II) E(0) [E(0)]



STROFA:


Cala il sipario 


E sto precipitando 


C'è un fuoco lento 


Che mi sta bruciando 

B        E     B        
Migliaia di persone 

F#
Intorno a me 

B            E     
Che esplodon di emozioni 

F#        B  E  F#
Senza limite

          B  E  F#
Senza limite

          B  E  F#
Senza limite

          B  E  F#  [B]
Senza limite
COMMENTA QUESTA TABLATURA
Devi avere JavaScript attivato per poter commentare! (misura antispam)