IndyTab Logo

BETA VERSION - 321 TABS DISPONIBILI

Cerca una tablatura nel nostro archivio:

Gruppo Canzone


Elenco dei gruppi presenti su IndyTab
Lista di tutte le tablature di IndyTab
DISCLAIMER
Questa tablatura rappresenta l'interpretazione della canzone da parte dell'autore. Può essere usata per scopi di studio, insegnamento e ricerca.

La tab è liberamente riproducibile in forum, blog, siti web (ad eccezione degli archivi di tablature online) e stampabile. Non è obbligatorio ma molto gradito citare la fonte (cioè IndyTab), meglio con un link di rimando al nostro sito.
ACCORDATORE
Per accordare la tua chitarra puoi usare il nostro accordatore online
TAB REQUEST
Stai cercando una tablatura? Suggeriscila compilando il modulo sottostante!

Gruppo
Titolo
Tua Mail

(la tua mail verrà usata per ricontattarti quando la tablatura sarà online)
DELLO STESSO GRUPPO

Porno Riviste // Pilota

Tablatura tratta dall'album: Sogni, Incubi E... La Cosa Inutile

(clicca qui per la legenda)

(clicca qui per il video)

    A  F#  D  E  F#(IX) G#  D#  F
e|---------------------------------|
B|---------------------------------|
G|---------7--9----11-------8------|
D|--7--4---7--9----11---6---8---3--|
A|--7--4---5--7-----9---6---6---3--|
E|--5--2----------------4-------1--|


--------------------------------------------------------------------------


STROFA:

A..
Non capisco se tu 

F#..
Pensi quello che dici 

D..
Io giocavo con te 

E..
Mi hai fottuto la bici 

A..
Ti ho fischiato ma tu 

F#..
Pedalavi veloce 

D..
Ogni cane lo sai 

E..
Ha una zuppa che cuoce 

A
Ogni estate noi due 

F#
Con la bici nei boschi 

D
Io fumavo ma tu 

E             (D#)/E
Tu mangiavi le mosche 

A
Il tuo pelo lo sai 

F#
Luccicava nel sole 

D
Sei scappato da me 

E..
Tu mi hai fatto del male 



STACCO:
(palm muted)
A  F# D  E



STROFA:
(palm muted)

A
Molti dicono che 

F#
La tua testa è malata 

D
Ma una bici così 

E
Tu l'hai tanto sognata 

A
Mi dicevi che tu 

F#
Ti sentivi pilota 

D
Con il senno di poi 

E(distorto normale)
Sono stato un idiota 



CORO:

A F#(IX) D E   



STROFA:

A
Non capisco se tu 

F#
Pensi quello che dici 

D
Io giocavo con te 

E
Mi hai fottuto la bici 

A
Ti ho fischiato ma tu 

F#
Pedalavi veloce 

D
Ogni cane lo sai 

E
Ha una zuppa che cuoce



PONTE:

F# D E (D#)/E

A (G#) F# (F)/F#  D  E

A(palm muted)



SOLO:
(suonare più volte le note segnate con *)
e|----------------------------------------------------|
B|-----12-14--------12-14-15-14-14-12---15-15-14-12---|
G|-14*-------13h14*-----------------------------------|
D|----------------------------------------------------|
A|----------------------------------------------------|
E|----------------------------------------------------|
   A            F#        D

e|----------------------------------------------------|
B|--15-14-12-14-12h14p12------------------------------|
G|-----------------------14-13*-----------------------|
D|----------------------------------------------------|
A|----------------------------------------------------|
E|----------------------------------------------------|
    E

e|----------------------------------------------------|
B|-----12-14--------12-14-15-14-14-12---15-15-14-12---|
G|-14*-------13h14*-----------------------------------|
D|----------------------------------------------------|
A|----------------------------------------------------|
E|----------------------------------------------------|
   A            F#        D

e|----------------------------------------------------|
B|--15-14-12-14-12h14p12------------------------------|
G|-----------------------14-13*-----------------------|
D|----------------------------------------------------|
A|----------------------------------------------------|
E|----------------------------------------------------|
    E

e|-------------------------------------------------------------|
B|-----12-14-12-15-14-12-14--------12-14-12-15-14-12-14--------|
G|-14*----------------------13h14*-----------------------------|
D|-------------------------------------------------------------|
A|-------------------------------------------------------------|
E|-------------------------------------------------------------|
   A                           F#

e|-------------------------------------------------------------|
B|-15-14-14-12---15-15-14-12---15-14-12-14-12h14p12------------|
G|--------------------------------------------------14-13*-----|
D|-------------------------------------------------------------|
A|-------------------------------------------------------------|
E|-------------------------------------------------------------|
   D                           E

e|-------------------------------------------------------------|
B|-----12-14-12-15-14-12-14--------12-14-12-15-14-12-14--------|
G|-14*----------------------13h14*-----------------------------|
D|-------------------------------------------------------------|
A|-------------------------------------------------------------|
E|-------------------------------------------------------------|
   A                           F#

e|-------------------------------------------------------------|
B|-15-14-14-12---15-15-14-12---15-14-12-14-12h14p12------------|
G|--------------------------------------------------14-13*-14~-|
D|-------------------------------------------------------------|
A|-------------------------------------------------------------|
E|-------------------------------------------------------------|
   D                           E                           A.. [A]
VIDEO

Se il video non dovesse essere più disponibile scrivi a indytab@googlemail.com. Grazie!
COMMENTA QUESTA TABLATURA
Devi avere JavaScript attivato per poter commentare! (misura antispam)