IndyTab Logo

BETA VERSION - 321 TABS DISPONIBILI

Cerca una tablatura nel nostro archivio:

Gruppo Canzone


Elenco dei gruppi presenti su IndyTab
Lista di tutte le tablature di IndyTab
DISCLAIMER
Questa tablatura rappresenta l'interpretazione della canzone da parte dell'autore. Pu˛ essere usata per scopi di studio, insegnamento e ricerca.

La tab Ŕ liberamente riproducibile in forum, blog, siti web (ad eccezione degli archivi di tablature online) e stampabile. Non Ŕ obbligatorio ma molto gradito citare la fonte (cioŔ IndyTab), meglio con un link di rimando al nostro sito.
ACCORDATORE
Per accordare la tua chitarra puoi usare il nostro accordatore online
TAB REQUEST
Stai cercando una tablatura? Suggeriscila compilando il modulo sottostante!

Gruppo
Titolo
Tua Mail

(la tua mail verrÓ usata per ricontattarti quando la tablatura sarÓ online)
DELLO STESSO GRUPPO

Derozer // Tg

Tablatura tratta dall'album: Alla Nostra EtÓ

(clicca qui per la legenda)

   E(0)   E(VII)   C    G    D    A     F#    B 
e|-----------------------------------------------------|
B|-----------------------------------------------------|
G|----------9------5---------7----------------4--------|
D|--2-------9------5----5----7----7-----4-----4--------|
A|--2-------7------3----5----5----7-----4-----2--------|
E|--0-------------------3---------5-----2--------------|



-------------------------------------------------------------------------------

RIFF:

e|--------------------------------------------------------------------------|
B|--------------------------------------------------------------------------|
G|--------------------------------------------------------------------------|
D|---/5-4-5----------/5-4-5----------5-4-5-7-77-7---5-4-5-7-77-7---5-4-5-4--|
A|----------7-7-7-----------3-3-3-------------------------------------------|
E|--------------------------------------------------------------------------|
            E(VII)          C              A 

e|--------------------------------------------------------------------------|
B|--------------------------------------------------------------------------|
G|--------------------------------------------------------------------------|
D|-------------5-4-5-----------5-4-5-7-77-7---5-4-5-7-77-7---5-4-5-4--------|
A|----7-77-7---------3-33-3-------------------------------------------------|
E|--------------------------------------------------------------------------|
      E(VII)         C               A 


STROFA 1:

B 
Oggi dicon che Ŕ calata ancora l'inflazione,

  (C)G                 (D)A    
motivo di benessere per tutta la nazione.

B 
Oggi dicon che la borsa corre come un razzo,

   (C)G                      (D)A 
ma nel mio portafoglio no non Ŕ cambiato un cazzo


STROFA 2:

E(0)                   A 
Che succede, io non lo so,

            G                        A 
questo Ŕ un gioco a cui non parteciper˛,

(G)(F#)E(0)             A 
questa in fondo Ŕ la realtÓ,

           G                        B 
per chi la vende e per chi la comprerÓ.......


RITORNELLO:

(G)(F#)E(0)     C  
TG qua       TG lÓ     

          G              B 
questa in fondo Ŕ la realtÓ,


(G)(F#)(G)(F#)E(0)     C 
TG qua              TG lÓ

          G                  B 
questa in fondo Ŕ la tua veritÓ.

(G)(F#)(G)(F#)E(0)     C 
TG qua              TG lÓ

          G              B 
questa in fondo Ŕ la realtÓ,


(G)(F#)(G)(F#)E(0)     C 
TG qua              TG lÓ

          G                  B 
questa in fondo Ŕ la tua veritÓ.


ASSOLO:

e|---------------------------------------------------------------------------|
B|---------------------------------------------------------------------------|
G|---------------------------------------------------------------------------|
D|---/5-4-5----------/5-4-5----------5-4-5-7-77-7---5-4-5-7-77-7---5-4-5-4---|
A|----------7-7-7-----------3-3-3--------------------------------------------|
E|---------------------------------------------------------------------------|
            E(VII)          C              A 

e|---------------------------------------------------------------------------|
B|---------------------------------------------------------------------------|
G|---------------------------------------------------------------------------|
D|-------------5-4-5-----------5-4-5-7-77-7---5-4-5-7-77-7----4-5------------|
A|----7-77-7---------3-33-3--------------------------------------------------|
E|---------------------------------------------------------------------------|
      E(VII)         C               A 

e|---------------------------------------------------------------------------|
B|---------------------------------------------------------------------------|
G|----4-4--4-4----4-5-5----5-5-4----------------4-4-4------------------------|
D|--------------7------------------7-7--7-7-5-7---------5-4-5-4--------------|
A|---------------------------------------------------------------------------|
E|---------------------------------------------------------------------------|
     E(VII)         C              A            B 

                                                |------------x2-------------|
e|---------------------------------------------------------------------------|
B|---------------------------------------------------------------------------|
G|---4-4--4-4----4-5-5----5-5-4------------------4-4--4----------------------|
D|-------------7------------------7-7--7-7-5-7----------7-7--7-5-5--5-4-4--4-|
A|---------------------------------------------------------------------------|
E|---------------------------------------------------------------------------|
     E(VII)        C              A              B      A      G      F#     


STROFA:

B 
Ecco la notizia Ŕ giÓ arrivata in redazione,

(C)G                      (D)A 
due minuti e sarÓ pronta alla divulgazione,

B 
ennesima menzogna da bere lentamente,

(C)G                   (D)A 
tanto della veritÓ a nessuno frega niente.


Poi, STROFA 2 e RITORNELLO come sopra


OUTRO:
G  F#  E(0)..  E(VII)  E(VII)  E(VII) 
COMMENTA QUESTA TABLATURA
Devi avere JavaScript attivato per poter commentare! (misura antispam)