IndyTab Logo

BETA VERSION - 321 TABS DISPONIBILI

Cerca una tablatura nel nostro archivio:

Gruppo Canzone


Elenco dei gruppi presenti su IndyTab
Lista di tutte le tablature di IndyTab
DISCLAIMER
Questa tablatura rappresenta l'interpretazione della canzone da parte dell'autore. Può essere usata per scopi di studio, insegnamento e ricerca.

La tab è liberamente riproducibile in forum, blog, siti web (ad eccezione degli archivi di tablature online) e stampabile. Non è obbligatorio ma molto gradito citare la fonte (cioè IndyTab), meglio con un link di rimando al nostro sito.
ACCORDATORE
Per accordare la tua chitarra puoi usare il nostro accordatore online
TAB REQUEST
Stai cercando una tablatura? Suggeriscila compilando il modulo sottostante!

Gruppo
Titolo
Tua Mail

(la tua mail verrà usata per ricontattarti quando la tablatura sarà online)
DELLO STESSO GRUPPO

Derozer // Mai

Tablatura tratta dall'album: Mondo Perfetto

(clicca qui per la legenda)

      B   F#  D#   E   G#    C#
e|--------------------------------|
B|--------------------------------|
G|--------11---8---9---------11---|
D|----9---11---8---9---6-----11---|
A|----9----9---6---7---6-----11---|
E|----7----------------4------9---|


--------------------------------------------------------------------------


INTRO:
e|----------------------------|
B|------4--5--4-----4--5--4---|
G|---4-----------4------------|
D|----------------------------|
A|----------------------------|
E|----------------------------|
Dieci volte, prime due da solo poi con ritmica B C# E D#


STROFA:

B
Qualsiasi cosa dite

C#
qualunque cosa fate

E                    F#   (E) (D#)
noi non vi crederemo mai

B
forse ci spezzerete

C#
ma piegarci no

     E                 F#   (E) (D#)
e perciò non vincerete mai


PRERITORNELLO:

E
la mia dignità

F#
non è un prodotto

    B                  G#
che comperi al supermercato

E                   [F#]
come la vodka ed il gin

RIFF:
(da suonare sul F# stoppato)
e|-----------------------|
B|-----------------------|
G|-----------------------|
D|-----------------------|
A|-9-11-9-11-9-11-9-11-9-|
E|-----------------------|


RITORNELLO:

B    E        F# (E)(D#)
mai... non vi crederemo

B    E        F# (E)(D#)
mai... non vi crederemo

B    E        F# (E)(D#) B
mai... non vi crederemo  mai


RIFF:
(ripetere il riff iniziale 4 volte)


STROFA:
(palm muted)

B
ancora gran promesse

C#
e lunghe discussioni

E                    
il dialogo è iniziato

F#                     
e tutti hanno firmato

B
ancora gran promesse

C#
di nuovo discussioni

E
e tutti hanno firmato

F#                      
ma nulla qui è cambiato


STROFA:
(ripetere la prima strofa)


PRERITORNELLO:
(ripetere preritornello)


RITORNELLO:
(ripetere ritornello)


RITORNELLO FINALE:
(come ritornello, sotto suonare il riff)


OUTRO:
B..
COMMENTA QUESTA TABLATURA
Devi avere JavaScript attivato per poter commentare! (misura antispam)