IndyTab Logo

BETA VERSION - 321 TABS DISPONIBILI

Cerca una tablatura nel nostro archivio:

Gruppo Canzone


Elenco dei gruppi presenti su IndyTab
Lista di tutte le tablature di IndyTab
DISCLAIMER
Questa tablatura rappresenta l'interpretazione della canzone da parte dell'autore. Può essere usata per scopi di studio, insegnamento e ricerca.

La tab è liberamente riproducibile in forum, blog, siti web (ad eccezione degli archivi di tablature online) e stampabile. Non è obbligatorio ma molto gradito citare la fonte (cioè IndyTab), meglio con un link di rimando al nostro sito.
ACCORDATORE
Per accordare la tua chitarra puoi usare il nostro accordatore online
TAB REQUEST
Stai cercando una tablatura? Suggeriscila compilando il modulo sottostante!

Gruppo
Titolo
Tua Mail

(la tua mail verrà usata per ricontattarti quando la tablatura sarà online)
DELLO STESSO GRUPPO

Derozer // Alla Nostra Età

Tablatura tratta dall'album: Alla Nostra Età

(clicca qui per la legenda)

     D    B    G    A    C#
e|-----------------------------|
B|-----------------------------|
G|---7-------------------6-----|
D|---7----9----5----7----6-----|
A|---5----9----5----7----4-----|
E|--------7----3----5----------|


--------------------------------------------------------------------------


INTRO:

e|----------------------------------------------------|
B|----------------------------------------------------|
G|--7----------7--7-7---6-6-6---7--7-7---6-6---7--6---|
D|--7----7--------------------------------------------|
A|--5----7-----5--5-5---4-4-4---5--5-5---4-4---5--4---|
E|-------5--------------------------------------------|
   [D]  [A]    D                              [A][D]  

e|------------------------------------------|
B|------------------------------------------|
G|---7--7-7---6-6-6---7--7-7---6-6---7--6---|
D|------------------------------------------|
A|---5--5-5---4-4-4---5--5-5---4-4---5--4---|
E|------------------------------------------|
     B                              [G][B]  

e|------------------------------------------|
B|------------------------------------------|
G|---7--7-7---6-6-6---7--7-7---6-6---7--6---|
D|------------------------------------------|
A|---5--5-5---4-4-4---5--5-5---4-4---5--4---|
E|------------------------------------------|
     G                              [B][G]  

e|------------------------------------------|
B|------------------------------------------|
G|---7--7-7---6-6-6---7--7-7---6-6---7--6---|
D|------------------------------------------|
A|---5--5-5---4-4-4---5--5-5---4-4---5--4---|
E|------------------------------------------|
     A                              [D][A]  



e|------------------------------------------|
B|------------------------------------------|
G|---7--7-7---6-6-6---4--4-4---6-6---7--6---|
D|------------------------------------------|
A|---5--5-5---4-4-4---2--2-2---4-4---5--4---|
E|------------------------------------------|
     D                              [A][D]  

e|------------------------------------------|
B|------------------------------------------|
G|---7--7-7---6-6-6---4--4-4---6-6---7--6---|
D|------------------------------------------|
A|---5--5-5---4-4-4---2--2-2---4-4---5--4---|
E|------------------------------------------|
     B                              [G][B]  

e|------------------------------------------------|
B|------------------------------------------------|
G|---7--7-7---6-6-6---4--4-4---6-6---7--6---------|
D|------------------------------------------7-----|
A|---5--5-5---4-4-4---2--2-2---4-4---5--4---7-----|
E|------------------------------------------5-----|
     G                              [B][G]  A.. 



STROFA:

            D                  B
Alla nostra età devi essere sposato,

                    G
con due figli, laureato

                 A                  D
per esser rispettato da questa società,

                  B
avere un conto in banca,

              G                 A
un mutuo da pagare per un monolocale

                   D
dove poterti impiccare

            B                   G
quando ti vedrai nei debiti affogare

                A
e non potrai scappare



RITORNELLO:

              G          A            D    (C#)B
E alla nostra età invece noi suoniamo punk

              G          A            D    [D]   [D][A]
e alla nostra età invece noi suoniamo punk



SOLO:

e|---------------------------------------------------|  
B|-------------7-------------------------------------|
G|--7-7--6-7-9----9-7-9-7---7------------------------|  X3
D|------------------------9---9----------------------|
A|---------------------------------------------------|
E|---------------------------------------------------|


e|---------------------------------------------------|
B|----------7---7-8-10-8-7--8--7---------------------|
G|--7---7-9---9--------------------------------------|
D|----9----------------------------------------------|
A|---------------------------------------------------|
E|---------------------------------------------------|
    

e|---------------------------------------------------|
B|--7-8-7-10-7-8-7-10-7-8-7-10-10/12-10--------------|
G|---------------------------------------------------| X3
D|---------------------------------------------------|
A|---------------------------------------------------|
E|---------------------------------------------------|


e|---------------------------------------------------|
B|--8-10/12-10-8-10-8-7-8-7---7----------------------|
G|--------------------------9---9-7------------------|
D|---------------------------------------------------|
A|---------------------------------------------------|
E|---------------------------------------------------|


e|---------------------------------------------------|
B|-------------------------------7-------------------|
G|--6-7-66-7-6~-7-66-7-6~-7-66-7---9-7-6-6~-7--------|
D|---------------------------------------------------|
A|---------------------------------------------------|
E|---------------------------------------------------|


e|---------------------------------------------------|
B|---------------------------------------------------|
G|--6-7-6--7--6-7-7/9--------------------------------|
D|---------------------------------------------------|
A|---------------------------------------------------|
E|---------------------------------------------------|

Accordi sotto l'assolo:

D B G A  X2

G A D (C#)B G A..



CORO:

            D  B  G  A
Alla nostra età

            D  B  G  A
Alla nostra età



OUTRO:

G A D (C#) B
G A [D][A] D.. 
COMMENTA QUESTA TABLATURA
Devi avere JavaScript attivato per poter commentare! (misura antispam)