IndyTab Logo

BETA VERSION - 321 TABS DISPONIBILI

Cerca una tablatura nel nostro archivio:

Gruppo Canzone


Elenco dei gruppi presenti su IndyTab
Lista di tutte le tablature di IndyTab
DISCLAIMER
Questa tablatura rappresenta l'interpretazione della canzone da parte dell'autore. Può essere usata per scopi di studio, insegnamento e ricerca.

La tab è liberamente riproducibile in forum, blog, siti web (ad eccezione degli archivi di tablature online) e stampabile. Non è obbligatorio ma molto gradito citare la fonte (cioè IndyTab), meglio con un link di rimando al nostro sito.
ACCORDATORE
Per accordare la tua chitarra puoi usare il nostro accordatore online
TAB REQUEST
Stai cercando una tablatura? Suggeriscila compilando il modulo sottostante!

Gruppo
Titolo
Tua Mail

(la tua mail verrà usata per ricontattarti quando la tablatura sarà online)
DELLO STESSO GRUPPO

Porno Riviste // Come Piace A Me

Tablatura tratta dall'album: Cosa Facciamo?

(clicca qui per la legenda)

(clicca qui per il video)

     A    C    G     D    F  
e|----------------------------|
B|----------------------------|
G|--------5----------7--------|
D|---7----5----5-----7----3---|
A|---7----3----5-----5----3---|
E|---5---------3----------1---|


--------------------------------------------------------------------------


STROFA:
(palm muted)

C 
Tu sei 

                       G  
proprio quella che non dice mai 

                       A 
che questo mondo è positivo 

             F     G  
per me e per te 

C 
Vedi me 

                       G  
che rendo questa vita futile 

                          A 
racconto storie un po' lunatiche 

           F    G  
di questa gente futile 


RITORNELLO:
(distorto normale)

A 
Io 

                     F 
che ti conosco bene ormai 

                              C 
e che penso a quello che ti farei 

                     D 
se fossimo in un paradiso grigio 

F     G      A 
come piace a me 

                                  F 
che dicon tutti che sono un po' strano 

                             C 
che pensan che io non sono umano 

           D 
soltanto perchè io penso 

F     G      A   (G)   F 
come piace a me 


PONTE:
e|------------------------------------------------------|
B|------------------------------------------------------|
G|------5-------7---------------------------------------|
D|----5---5---7---7-----3-------5--------2x-------------|
A|--3-------5---------3---3---5---5---------------------|
E|------------------1-------3---------------------------|
    C       D       F       G  

STROFA:

C 
Piove se 

                     G  
diventi strana ed irascibile 

                       A 
per quelle distrazioni mie 

               F    G  
che ti fanno riflettere 

   C 
ma vedi che 

                     G  
sono un pirata sulle nuvole 

                          A 
che crede troppo a troppe favole 

          F     G  
di questa gente futile 


RITORNELLO:

A 
Io 

                              F 
che penso sempre a quello che fai 

                             C 
e che penso a quello che ti farei 

                     D 
se fossimo in un paradiso grigio 

F    G       A 
come piace a me 

                                F 
che dicon tutti che sono un po' strano 

                             C 
che pensan che io non sono umano 

            D          
soltanto perchè io penso 

F    G      [A]   (G)    F 
come piace a me


SOLO:
e|----------13-12-10----------13-12-10-15-12-15-13-12-10-|
B|-13----13----------13----13----------------------------|
G|----12----------------12-------------------------------|
D|-------------------------------------------------------|
A|-------------------------------------------------------|
E|-------------------------------------------------------|
   C                 G                 A 

e|-13-12-10-12-10-------10-|
B|----------------13-12----|
G|-------------------------|
D|-------------------------|
A|-------------------------|
E|-------------------------|
   F              G  

e|----------13-12-10----------13-12-10-15-12-15-13-12-10-|
B|-13----13----------13----13----------------------------|
G|----12----------------12-------------------------------|
D|-------------------------------------------------------|
A|-------------------------------------------------------|
E|-------------------------------------------------------|
   C                 G                 A 

e|-13-12-10-12-10----12-10----|
B|----------------13-------13-|
G|----------------------------|
D|----------------------------|
A|----------------------------|
E|----------------------------|
   F              G       [C]

RITORNELLO:


Io 

                     
che ti conosco bene ormai 

                              C 
e che penso a quello che ti farei 

                     D 
se fossimo in un paradiso grigio 

F     G      A 
come piace a me 

                                  F 
che dicon tutti che sono un po' strano 

                             C 
che pensan che io non sono umano 

           D 
soltanto perchè io penso 

F     G      A   (G)   F 
come piace a me 

SOLO FINALE:
e|----------13-12-10----------13-12-10-|
B|-13----13----------13----13----------|
G|----12----------------12-------------|
D|-------------------------------------|
A|-------------------------------------|
E|-------------------------------------|
   C        D        F        G  

e|-15-12-15-13-12-10-13-12-10-12-10-------10----|
B|----------------------------------13-12----13-|
G|----------------------------------------------|
D|----------------------------------------------|
A|----------------------------------------------|
E|----------------------------------------------|
   C        D       [F]    (C)  (G)   (G)    C..
VIDEO

Se il video non dovesse essere più disponibile scrivi a indytab@googlemail.com. Grazie!
COMMENTI
4/10/09 18:00, mario:
perfetta!grande chi ha avuto la voglia di scriverla!

COMMENTA QUESTA TABLATURA
Devi avere JavaScript attivato per poter commentare! (misura antispam)