IndyTab Logo

BETA VERSION - 321 TABS DISPONIBILI

Cerca una tablatura nel nostro archivio:

Gruppo Canzone


Elenco dei gruppi presenti su IndyTab
Lista di tutte le tablature di IndyTab
DISCLAIMER
Questa tablatura rappresenta l'interpretazione della canzone da parte dell'autore. Può essere usata per scopi di studio, insegnamento e ricerca.

La tab è liberamente riproducibile in forum, blog, siti web (ad eccezione degli archivi di tablature online) e stampabile. Non è obbligatorio ma molto gradito citare la fonte (cioè IndyTab), meglio con un link di rimando al nostro sito.
ACCORDATORE
Per accordare la tua chitarra puoi usare il nostro accordatore online
TAB REQUEST
Stai cercando una tablatura? Suggeriscila compilando il modulo sottostante!

Gruppo
Titolo
Tua Mail

(la tua mail verrà usata per ricontattarti quando la tablatura sarà online)
DELLO STESSO GRUPPO

Los Fastidios // Con Voi

Tablatura tratta dall'album: Contiamo Su Di Voi!

(clicca qui per la legenda)

    G  C  D  A  F#
e|--------------------|
B|--------------------|
G|-----5--7-----------|
D|--5--5--7--7--4-----|
A|--5--3--5--7--4-----|
E|--3--------5--2-----|


--------------------------------------------------------------------------


RITORNELLO:

G C        G C        G C         D C    G..  (pickslide)
  Con voi,   con voi,   con voi!



STROFA:

G                     (F#) G 
Mi ricordo che anni fa     sopra il palco di quel pub

RIFF                     G
suonava un grande gruppo punk

G                  (F#) G
Ragazzacci come me,       birra vino a volontà

RIFF                G
tutto si fotte a gridar

(RIFF)
e|-----------------------|
B|-----------------------|
G|---9--7--5--7--5--4----|
D|-----------------------|
A|---7--5--3--5--3--2----|
E|-----------------------|


C        A             F#/G F#/G F#/G G
e poi saltava tutto il pub

C           A         F#/G F#/G F#/G G
  una bomba di sincerità,

C      A            F#/G F#/G   F#/G G
e si beveva e si cantava tra di noi

C         A              
e poi sul palco insieme a voi



RITORNELLO:

G C        G C        G C         D C    G..  (pickslide)
  Con voi,   con voi,   con voi!



STROFA:

G                      (F#) G
Quanti anni son passati      ci troviamo nelle strade

RIFF                  G
fianco a fianco per lottare

G                        (F#) G
Ma la forza che ci unisce      non sarà distrutta mai

RIFF                G
la vera forza siamo noi

C        A            F#/G F#/G F#/G G
E adesso siamo ancora qui

C     A            F#/G F#/G F#/G G
amici veri più che mai

C           A          F#/G F#/G F#/G G
ma chi l'avrebbe detto eppure eccoci qua!

C       A 
e tutto da un concerto punk



RITORNELLO:

G C        G C        G C         D C    G..  
  Con voi,   con voi,   con voi!



SOLO:

e|----------------------------------------------------|
B|----------------------------------------------------|
G|---4-7-4---4-7-5-4-----/9-7-5-7-5-4---4-5-4-7-4-5-4-|
D|-5-------5----------2x--------------5---------------|x2
A|----------------------------------------------------|
E|----------------------------------------------------|
   G                     C      D     G

e|----------------------------------|
B|----------------------------------|
G|--5--4-5-7-5-4-----4-5-4---4-5-4--|
D|-----------------5-------5--------|
A|----------------------------------|
E|----------------------------------|
    C      A       G

e|----------------------------------|
B|----------------------------------|
G|--5--4-5-7-5-4-----4-5-4-7-4-5-4--|
D|-----------------5----------------|
A|----------------------------------|
E|----------------------------------|
    C      A       G

e|----------------------------------|
B|--------------------------5-------|
G|--5--4-5-7-5-4------4-5-7---7-5-4-|
D|------------------5---------------|
A|----------------------------------|
E|----------------------------------|
    C      A        G

e|----------------------------------|
B|----------------------------------|
G|--5--4-5-7-5-4--------------------|
D|------------------5---------------|
A|----------------------------------|
E|----------------------------------|
    C      A       [G]



STROFA:

G                     (F#) G 
Mi ricordo che anni fa     sopra il palco di quel pub

RIFF                     G
suonava un grande gruppo punk

G                  (F#) G
Ragazzacci come me,       birra vino a volontà

RIFF                G
tutto si fotte a gridar

C        A             F#/G F#/G F#/G G
e poi saltava tutto il pub

C           A         F#/G F#/G F#/G G
  una bomba di sincerità,

C      A            F#/G F#/G   F#/G G
e si beveva e si cantava tra di noi

C         A               G           
e poi sul palco insieme a voi

C        A            F#/G F#/G F#/G G
E adesso siamo ancora qui

C     A            F#/G F#/G F#/G G
amici veri più che mai

C           A          F#/G F#/G F#/G G
ma chi l'avrebbe detto eppure eccoci qua!

C       A 
e tutto da un concerto punk



RITORNELLO:

G C        G C        G C         D C    G..  
  Con voi,   con voi,   con voi!
COMMENTA QUESTA TABLATURA
Devi avere JavaScript attivato per poter commentare! (misura antispam)