IndyTab Logo

BETA VERSION - 321 TABS DISPONIBILI

Cerca una tablatura nel nostro archivio:

Gruppo Canzone


Elenco dei gruppi presenti su IndyTab
Lista di tutte le tablature di IndyTab
DISCLAIMER
Questa tablatura rappresenta l'interpretazione della canzone da parte dell'autore. Può essere usata per scopi di studio, insegnamento e ricerca.

La tab è liberamente riproducibile in forum, blog, siti web (ad eccezione degli archivi di tablature online) e stampabile. Non è obbligatorio ma molto gradito citare la fonte (cioè IndyTab), meglio con un link di rimando al nostro sito.
ACCORDATORE
Per accordare la tua chitarra puoi usare il nostro accordatore online
TAB REQUEST
Stai cercando una tablatura? Suggeriscila compilando il modulo sottostante!

Gruppo
Titolo
Tua Mail

(la tua mail verrà usata per ricontattarti quando la tablatura sarà online)
DELLO STESSO GRUPPO

Los Fastidios // Vecchio Skinhead

Tablatura tratta dall'album: Contiamo Su Di Voi!

(clicca qui per la legenda)

(clicca qui per il video)

     F    C    Bb    G        F   C   Bb   G 
e|---1----3----1-----3----|--------------------|
B|---1----5----3-----3----|--------------------|
G|---2----5----3-----4----|--------------------|
D|---3----5----3-----5----|---3---10--8----5---|
A|--(3)--(3)--(1)---(5)---|---3---10--8----5---|
E|--(1)-------------(3)---|---1---8---6----3---|
        accordi ska             accordi punk


--------------------------------------------------------------------------


INTRO:
(accordi punk)

C..               F..           (F)/C..           (C)\G..          (G)/  
Vecchio skinhead, vecchio skinhead, vecchio skinhead, vecchio skinhead

C..           (C)\F..           (F)/C..           (C)\G..          
vecchio skinhead, vecchio skinhead, vecchio skinhead, vecchio skinhead



STROFA:
(accordi ska distorti)

C Bb F G x2

C               Bb
Boots, bretelle e blue jeans

F                         G
lambretta e vespa parcheggiate fuori dal pub

C               Bb
Dallo stereo si alza e va

F                    G
alternando jamaican, rocksteady e ska



RITORNELLO:
(accordi ska distorti)

C                 F                 C                 G
vecchio skinhead, vecchio skinhead, vecchio skinhead, vecchio skinhead

C                 F                 C                 G
vecchio skinhead, vecchio skinhead, vecchio skinhead, vecchio skinhead



STROFA:
(accordi ska distorti)

C Bb F G x2

C             Bb
Dai sobborghi delle città

F                    G
bianchi e neri della working class

C                 Bb
ballano e cantano Skinhead Moonstomp

F              G
Skinhead Girl, Skinhead Revolt



RIPETERE INTRO



SOLO:
(accordi strofa: C Bb F G)
e|----------------------------------------------------|
B|----------------------------------------------------|
G|--5--5-4-5-4-3--3-2-3-2------2-------4---4--5--4----|
D|------------------------3--3---3-2-5---5------------|
A|----------------------------------------------------|
E|----------------------------------------------------|

e|----------------------------------------------------|
B|----------------------------------------------------|
G|--5--5-4-5-4-3--3-2-3-2------2-------4---4-5-7-5-4--|
D|------------------------3--3---3-2-5---5------------|
A|----------------------------------------------------|
E|----------------------------------------------------|

e|----------------------------------------------------|
B|----------------------------------------------------|
G|-5-5-5-4-4-5-5-7-5-4---3-3-3-2-2-3-3-5-3-2------2---|
D|--------------------------------------------3-3-----|
A|----------------------------------------------------|
E|----------------------------------------------------|

e|-----------------------------------------|
B|-----------------------------------------|
G|---2-3-2---2--------4---4-5-7-5-4-5-4----|
D|-3-------3---3--5-5---5---------------5--|
A|-----------------------------------------|
E|-----------------------------------------|

e|----------------------------------------------------|
B|----------------------------------------------------|
G|--5-5-4-4-5-5-7-5-4----3-3-3-2-2-3-3-5-3-2------2---|
D|--------------------------------------------3-3-----|
A|----------------------------------------------------|
E|----------------------------------------------------|

e|--------------------------------------------|
B|--------------------------------------------|
G|---2-3-2---2--------4---4-5-7-5-4-5-4----5~-|
D|-3-------3---3--5-5---5---------------5-----|
A|--------------------------------------------|
E|--------------------------------------------|



RITORNELLO:
(ripetere il ritornello)



RIPETERE INTRO



CODA:
(accordi: C Bb F G)

e|----------------------------------------------------|
B|----------------------------------------------------|
G|--5--5-4-5-4-3--3-2-3-2------2------------4---4--5--|
D|------------------------3--3---3-2-5----5---5-------|
A|----------------------------------------------------|
E|----------------------------------------------------|


(ripetere, mentre va a sfumare)

e|----------------------------------------------------|
B|----------------------------------------------------|
G|--5--5-4-5-4-3--3-2-3-2------2-------4---4--5--4----|
D|------------------------3--3---3-2-5---5------------|
A|----------------------------------------------------|
E|----------------------------------------------------|
VIDEO

Se il video non dovesse essere più disponibile scrivi a indytab@googlemail.com. Grazie!
COMMENTI
12/9/11 12:08, jack:
Ottima tab!!!

8/1/13 17:04, teo:
bella!!!!



COMMENTA QUESTA TABLATURA
Devi avere JavaScript attivato per poter commentare! (misura antispam)