IndyTab Logo

BETA VERSION - 321 TABS DISPONIBILI

Cerca una tablatura nel nostro archivio:

Gruppo Canzone


Elenco dei gruppi presenti su IndyTab
Lista di tutte le tablature di IndyTab
DISCLAIMER
Questa tablatura rappresenta l'interpretazione della canzone da parte dell'autore. Può essere usata per scopi di studio, insegnamento e ricerca.

La tab è liberamente riproducibile in forum, blog, siti web (ad eccezione degli archivi di tablature online) e stampabile. Non è obbligatorio ma molto gradito citare la fonte (cioè IndyTab), meglio con un link di rimando al nostro sito.
ACCORDATORE
Per accordare la tua chitarra puoi usare il nostro accordatore online
TAB REQUEST
Stai cercando una tablatura? Suggeriscila compilando il modulo sottostante!

Gruppo
Titolo
Tua Mail

(la tua mail verrà usata per ricontattarti quando la tablatura sarà online)
DELLO STESSO GRUPPO

Sun Eats Hours // Sincerely

Tablatura tratta dall'album: Don't Waste Time

(clicca qui per la legenda)

    A   F   F(I)   C   E   E(0)   G    
e|-------------------------------------|
B|-------------------------------------|
G|-----10----------9---9----------12---|
D|--7--10----3----10---9----2-----12---|
A|--7---8----3----10---7----2-----10---|
E|--5--------1----8---------0----------|


--------------------------------------------------------------------------


INTRO:

(suonare in palm muted le note gravi del RIFF)
e|------------------------------------------------------------------|
B|------5-----5---5-----6-----6---6-----5-----5---5-----6-----6---6-|
G|----------------------------------5-5---5-5---5-------------------|
D|--7-7---7-7---7---3-3---3-3---3-------------------5-5---5-5---5---|
A|------------------------------------------------------------------|
E|------------------------------------------------------------------|


e|------------------------------------------------------------------|
B|------5-----5---5-----6-----6---6-----5---8---6p5-----5---8---6p5-|
G|----------------------------------5-5---5---5---------------------|
D|--7-7---7-7---7---3-3---3-3---3-------------------5-5---5---5-----|
A|------------------------------------------------------------------|
E|------------------------------------------------------------------|

(suonare in palm muted le note gravi del RIFF e la ritmica)
e|------------------------------------------------------------------|
B|------5-----5---5-----6-----6---6-----5-----5---5-----6-----8---6-|
G|----------------------------------5-5---5-5---5-------------------|
D|--7-7---7-7---7---3-3---3-3---3-------------------5-5---5-5---5---|
A|------------------------------------------------------------------|
E|------------------------------------------------------------------|
    A               F(I)            C               E(0)

e|------------------------------------------------------------------|
B|------5-----5---5-----6-----6---6-----5---8---6p5-----5---8---6p5-|
G|----------------------------------5-5---5---5---------------------|
D|--7-7---7-7---7---3-3---3-3---3-------------------5-5---5---5-----|
A|------------------------------------------------------------------|
E|------------------------------------------------------------------|
    A               F(I)            C               E(accordo aperto)



RIFF(x2):
e|----------------------------------------------------|
B|--10-10-10-10-12-13----------12-13-12---------------|
G|--------------------10-10-10----------12-12-12-12---|
D|---7--7--7--7--9-10-----------9-10--9---------------|
A|---------------------8--8--8----------10-10-10-10---|
E|----------------------------------------------------|
    A                 F                 C       

e|-------------------------------|
B|--12-13-15-15-15-13-12-13-12---|
G|-------------------------------|
D|---9-10-12-12-12-10--9-10--9---|
A|-------------------------------|
E|-------------------------------|
          E                

e|----------------------------------------------------|
B|--10-10-10-10-12-13----------12-13-12---------------|
G|--------------------10-10-10----------12-12-12-12---|
D|---7--7--7--7--9-10-----------9-10--9---------------|
A|---------------------8--8--8----------10-10-10-10---|
E|----------------------------------------------------|
    A                  F                 C       

e|-------------------------------|
B|--12-13-15-15-15-13-12-13-12---|
G|-------------------------------|
D|---9-10-12-12-12-10--9-10--9---|
A|-------------------------------|
E|-------------------------------|
          E                 [E]



STROFA:
(accordi normali)

A..          A..     F  
OK here I am growing up with you and

          C         E
I've done nothing,

                 A
To be lucky as I am;

                  F
There are so many guys

                 C          E
That are running only to be alive, While

(palm muted)

A                                     F(I)
I'm running in the fields where grass grows,

              C         E(0) 
The sun is marvellous,

             A
But how many guys

            F(I)
Are running only to run

     C          E(0).. E(0)(in p.m)   E(accordo aperto)
Like I am doing now?



RITORNELLO:

A
Sincerely, I don't know

(E)F
Sincerely, I don't know

(E)C              (F) E
Sincerely We must feel good


A
Sincerely, I don't know

(E)F
Sincerely, I don't know

(E)C     (F) E
Sincerely
      


STROFA:
(accordi normali)

A      
I know that every day

        F                      C          E
You say something like you are unlucky,

              A
Well I didn't really think it

F             C                   E 
Because death never passed by our eyes.

(palm muted)

A
Look at my eyes

         F(I)           C        E(0)
And do believe what I'm singing,

                    A
I know I've got the right,

                   F             
And I wish they'll be running to run

     C          E(0).. E(0)(in p.m)   E(accordo aperto) xxx E xxx
Like I am doing now



RITORNELLO:
Ripetere il ritornello due volte



PONTE:

(palm muted)
A F(I) C E(0) x2

(A in p.m.)
Never give up with your fuckin' life


Never ever throw out what someone has done for you,


Why someone bled for us.


Look at the world situation, were only fuckin' less

                     
Who thought to got freedom

A..
And thought to have yeah more than that


(palm muted)

A                               F(I)
Never give up with your fuckin' life

           C                                   E(0)
Never ever throw out what someone has done for you,


Why someone bled for us.

A                     F                        C
Look at the world situation, were only fuckin' less

                   
Who thought to got freedom


(accordi aperti)

(F)E           (F)E                (F)E  (F)(G)(F)(E)(C)
And thought to have yeah more than that



RITORNELLO:
Ripetere il ritornello due volte



OUTRO:

RIFF(x2):
e|----------------------------------------------------|
B|--10-10-10-10-12-13----------12-13-12---------------|
G|--------------------10-10-10----------12-12-12-12---|
D|---7--7--7--7--9-10-----------9-10--9---------------|
A|---------------------8--8--8----------10-10-10-10---|
E|----------------------------------------------------|
    A                 F                 C       

e|-------------------------------|
B|--12-13-15-15-15-13-12-13-12---|
G|-------------------------------|
D|---9-10-12-12-12-10--9-10--9---|
A|-------------------------------|
E|-------------------------------|
          E                


e|----------------------------------------------------|
B|--10-10-10-10-12-13----------12-13-12---------------|
G|--------------------10-10-10----------12-12-12-12---|
D|---7--7--7--7--9-10-----------9-10--9---------------|
A|---------------------8--8--8----------10-10-10-10---|
E|----------------------------------------------------|
    A                 F                 C       

e|-------------------------------|
B|--12-13-15-15-15-13-12-13-12---|
G|-------------------------------|
D|---9-10-12-12-12-10--9-10--9---|
A|-------------------------------|
E|-------------------------------|
          E                 [E]  A..
COMMENTA QUESTA TABLATURA
Devi avere JavaScript attivato per poter commentare! (misura antispam)