IndyTab Logo

BETA VERSION - 321 TABS DISPONIBILI

Cerca una tablatura nel nostro archivio:

Gruppo Canzone


Elenco dei gruppi presenti su IndyTab
Lista di tutte le tablature di IndyTab
DISCLAIMER
Questa tablatura rappresenta l'interpretazione della canzone da parte dell'autore. Può essere usata per scopi di studio, insegnamento e ricerca.

La tab è liberamente riproducibile in forum, blog, siti web (ad eccezione degli archivi di tablature online) e stampabile. Non è obbligatorio ma molto gradito citare la fonte (cioè IndyTab), meglio con un link di rimando al nostro sito.
ACCORDATORE
Per accordare la tua chitarra puoi usare il nostro accordatore online
TAB REQUEST
Stai cercando una tablatura? Suggeriscila compilando il modulo sottostante!

Gruppo
Titolo
Tua Mail

(la tua mail verrà usata per ricontattarti quando la tablatura sarà online)
DELLO STESSO GRUPPO

Porno Riviste // M. I. B.

Tablatura tratta dall'album: Codice A Sbarre

(clicca qui per la legenda)

     G   B   E   C   F#
e|-----------------------|
B|-----------------------|
G|-------4-------5-------|
D|---5---4---2---5---4---|
A|---5---2---2---3---4---|
E|---3-------0-------2---|


--------------------------------------------------------------------------


INTRO:
(palm muted)

G (E) B E C (E)


RIFF:
e|-------------------------------------------------------|
B|-------------------------------------------------------|
G|-------------------------------------------------------|
D|--5---5h7p5-4-----4-5--5/7--9--10----9------(7)--------|
A|----------------7--------------------------------------|
E|-------------------------------------------------------|
    G      (E)B       E          C    (tutti p.m.)

e|-------------------------------------------------------|
B|-------------------------------------------------------|
G|-------------------------------------------------------|
D|--5-----5-7-5-4--------4-5--4-5-7--5-4----10-9h10p9-7--|
A|------5----------5---7-----------------7---------------|
E|-------------------------------------------------------|
    G           B          E             C     D

STROFA:

G                        C
Scivolando e cadendo nel buio

     G                    D
alla fine ho capito che c'e'

      G               C
un congegno meccanici spinge sul singolo

  D                     G
e uccide chi sceglie da sé

      G                C
funzionava da tempi lontani

      G                  D
funzionava e funziona di più

        G        
non c'è scelta è la voce

    C                     D                 G (F#)
che esce dalle auto dalle 8 al momento del tè



RITORNELLO:

C                  D
fa che non vada così

       G                  C
fa che io non finisca di lì

       C                  D          G+G(p.m.)
sei la macchina incula bambini o M.I.B.



STROFA:

  G                             C
è qualcosa stagnante e anche il vento

       G                   D
non la toglie da davanti a me

      G                C
è una fila infinita di teste abbassate

   D                    G
ma vedi la mia lì non c'è

       G                   C
ho uno scopo una meta e un domani

      G                D
la salvezza dipende da me

       G                C
non mi sono stancato la sfida mi esalta

   D                   G  (F#)
ti aspetto comincia da me


RITORNELLO:

C                  D
fa che non vada così

       G                  C
fa che io non finisca di lì

       C                  D          G(p.m.)
sei la macchina incula bambini o M.I.B.



RIFF:                 
e|------------------------------------------------------|
B|----------------------------------------12h13p12--10--|
G|---------------------------------9--12----------------|
D|--5---5h7p5-4-----4--5--7--9--10----------------------|
A|----------------7-------------------------------------|
E|--------------|p.m.|----------------------------------|
    G         B        E        C         D


STROFA:
(palm muted)

  G                             C
è qualcosa stagnante e anche il vento

       G                   D
non la toglie da davanti a me

      G                C
è una fila infinita di teste abbassate

   D                    G (F#) (senza palm muted)
ma vedi la mia lì non c'è



RITORNELLO:

   C                  D
ma fa che non vada così

       G                  C
fa che io non finisca di lì

       C                  D          G
sei la macchina incula bambini o M.I.B.

   C                  D
ma fa che non vada così

       G                  C
fa che io non finisca di lì

       C                  D                   G..
sei la macchina incula bambini e "ti sfido da qui"


STACCO:
G (p.m.)


SOLO:
e|--------------------------------------------------------------------|
B|--------------------------------------------------------12h13p12-10-|
G|--------4---5-4-------7-----5-4h5p4----------------9-12-------------|
D|--5---7---7-----7-5-4---------------5---5-5/7-9-10------------------|
A|--------------------------------------------------------------------|
E|--------------------------------------------------------------------|
    G                 B               E           C         

e|--------------------------------------------------------|
B|---------12----13-12----------15---13-12h13p12----------|
G|--12--14----14-------14-12-11------------------12-------|
D|--------------------------------------------------------|
A|--------------------------------------------------------|
E|--------------------------------------------------------|
    G                        B                   E

e|--------------------------------------------------------|
B|-----------12h13-13p12----------------------------------|
G|--12-12/14--------------12------------------------------|
D|----------------------------12h14---12------------------|
A|--------------------------------------------------------|
E|--------------------------------------------------------|
                   C                  D


STROFA:

(G(p.m.)) G            C
quel gigante davanti a me

      G               D
detta legge solo finchè

         G                C
togli un dubbio dalla tua vita

          D               G
scegli da solo quello che sei

(G(p.m.))G             C
si nasconde ovunque si va

       G             D
cambia voce fingendo che

         G               C
sia un amico in vena d'aiuto

         D               G
mille consigli sentiti già



ULTIMO RITORNELLO:

C            D          G                   C
so che non è così me ne sbatto vieni un po' qui

        C                 D       G      G(p.m.)
sto pigliando a calci nel culo un M.I.B

(entra il RIFF FINALE)

C                 D
so che in fondo è così

                 G
è un castello di sabbia

            E
e noi siamo li

            C                  D
mantieni la calma e scegli uno stile

           G  
ma buttalo giù

C              D
no non finisce qui

   G                        E
la sfida dell'uomo all' M.I.B.

             C
la voglia di vita

           D
uccide gli schemi

             G  G(p.m.)
uccidi anche tu

C D G E C D G..


RIFF FINALE:
(suonare più volte le note segnate con .)
e|----------------------------------------------------|
B|----------------------------------------------------|
G|----------------------------------------------------|
D|-10--9-7---9-------12-10---7---9---9-10-9-7----7-9--|
A|---------------10---------------------------10------|
E|----------------------------------------------------|
    .    .   .    .      .   .   .   

e|----------------------------------------------------|
B|----------------------------------------------------|
G|----------------------------7-----7-----------------|
D|-10--9-7---12--10--9-----5-----5-----5--------------|
A|----------------------------------------------------|
E|----------------------------------------------------|
    .    .    .      .     .     .     .

    (in p.m.)
e|------------------------|
B|------------------------|
G|------------------------|
D|----------7-------------|
A|------7-9-----10-9-10---|
E|---10-------------------|


e|----------------------------------------------------|
B|-------------------------------------------10-------|
G|-----------------------------9-9-9-11-12------------|
D|-10--9-7-----12-9-12--------------------------------|
A|---------10----------10-----------------------------|
E|----------------------------------------------------|
    .    .     .

e|----------------------------------------------------|
B|--13-13-13-13-12----------12------------------------|
G|-----------------12----------12----12~--------------|
D|--------------------12h14-------14------------------|
A|----------------------------------------------------|
E|----------------------------------------------------|
COMMENTI
1/12/12 11:30, Cristiano:
perfetta, mi diverto molto a suonare MIB, perfetti gli accordi. +1

14/3/13 13:48, Fra:
Non se chi sei ma sei un grande! Hai vinto

19/7/13 15:19, Ivan:
Grande, tutto perfetto!

COMMENTA QUESTA TABLATURA
Devi avere JavaScript attivato per poter commentare! (misura antispam)