IndyTab Logo

BETA VERSION - 321 TABS DISPONIBILI

Cerca una tablatura nel nostro archivio:

Gruppo Canzone


Elenco dei gruppi presenti su IndyTab
Lista di tutte le tablature di IndyTab
DISCLAIMER
Questa tablatura rappresenta l'interpretazione della canzone da parte dell'autore. Può essere usata per scopi di studio, insegnamento e ricerca.

La tab è liberamente riproducibile in forum, blog, siti web (ad eccezione degli archivi di tablature online) e stampabile. Non è obbligatorio ma molto gradito citare la fonte (cioè IndyTab), meglio con un link di rimando al nostro sito.
ACCORDATORE
Per accordare la tua chitarra puoi usare il nostro accordatore online
TAB REQUEST
Stai cercando una tablatura? Suggeriscila compilando il modulo sottostante!

Gruppo
Titolo
Tua Mail

(la tua mail verrà usata per ricontattarti quando la tablatura sarà online)
DELLO STESSO GRUPPO

Tre Allegri Ragazzi Morti // Questo È Il Mondo

Tablatura tratta dall'album: Il Sogno Del Gorilla Bianco

(clicca qui per la legenda)

(clicca qui per il video)

    G  B  C   F  F(I)
e|----------------------|
B|----------------------|
G|-----4--5--10---------|
D|--5--4--5--10---3-----|
A|--5--2--3---8---3-----|
E|--3-------------1-----|


--------------------------------------------------------------------------


INTRO:
F(I) (palm muted)


STROFA:

G                      B 
Proverò a cercare dove sta la verità

         C                     F
tutti mi mostrano le proprie ragioni

   G
mangiare un altro panino

       B       
non mi pare così indispensabile

      C
in un mondo dove due terzi

           F
muoiono di fame

G                             B
quello che fa diverso un uomo è il posto dove vive

  C                          F
ognuno in fondo ha le stesse possibilità

G                    B   
per questo motivo se vuoi partire

    C                   F
non sarò certo io a fermarti

  G                               B
a dirti che in fondo il mondo non è così enorme

  C                           F             
e ti puoi perdere anche nella tua città

G                            B       
c´è un gorilla bianco in una gabbia da trent´anni

C                    F
che presto morirà di cancro

G                            B                C      F
c´è una donna che ha provato con tutte le sue forze

G           B            G
ha lavorato si è sposata ha amato i figli

F
e morirà di cancro

G                          B 
c´è una bambina un po´ più sola degli altri

C                    F
che comunque sorriderà

G                               B            
e una madre disperata che altro non sa fare

C                       F
che la guerra al suo papà



RITORNELLO:

F + RIFF1           
questo è il mondo

F + RIFF2           
questo è il mondo

F + RIFF1    
questo è il mondo

F + RIFF2    
questo è il mondo

      RIFF1          RIFF2
e|--------------|--------------|
B|--------------|--------------|
G|--4-----5--4--|--4-----5--7--|
D|-----5--------|-----5--------|
A|--------------|--------------|
E|--------------|--------------|



SOLO:
e|--------------------------------------------------|
B|--------------------------------------------------|
G|------4-5-4-5-7-5-4-5--------4-5-4-5-7-5-4-5------|
D|--5-7--------------------5-7----------------------|
A|--------------------------------------------------|
E|--------------------------------------------------|
    G     B     C     F    G     B     C     F

e|--------------------------------------------------|
B|--------------------------------------------------|
G|--4---5-4---5-4---5-4--------4-5-4-5-/7-5-4-5h7p5-|
D|----5-----5-----4--------5-7----------------------|
A|--------------------------------------------------|
E|--------------------------------------------------|
    G     B     C     F    G     B      C     F



RITORNELLO:
(ripetere il ritornello)



STACCO:
G B C F x2



STROFA:

G                          B 
c´è una bambina un po´ più sola degli altri

C                    F
che comunque sorriderà

G                               B            
e una madre disperata che altro non sa fare

C                       F
che la guerra al suo papà



RITORNELLO:
(ripetere il ritornello)



SOLO:
e|--------------------------------------------------|
B|--------------------------------------------------|
G|--4---5-4---5-4------4---5-4-5-4-5-4--------------|
D|----5-----5------------5--------------------------|
A|--------------------------------------------------|
E|--------------------------------------------------|
    G       B          C       F

e|--------------------------------------------------|
B|--------------------------------------------------|
G|--4---5-4-4---5------5-4---4-5-4------------------|
D|----5-------5------------5-------5----------------|
A|--------------------------------------------------|
E|--------------------------------------------------|
    G       B          C       F

e|--------------------------------------------------|
B|--------------------------------------------------|
G|----4-5-4---4-5------4-5-4---4-5-7p5-4------------|
D|--5-------5----------------5----------------------|
A|--------------------------------------------------|
E|--------------------------------------------------|
    G       B          C       F

e|--------------------------------------------------|
B|--------------------------------------------------|
G|--4---5-4-7-4-5-4---4-5-7-4-5---------------------|
D|----5-------------5-----------5-------------------|
A|--------------------------------------------------|
E|--------------------------------------------------|
    G       B       C       F

e|--------------------------------------------------|
B|-------------------------------------------8~-----|
G|--4---5-4---4---5-7---4---5-4---4---5-7-----------|
D|----5---------5---------5---------5---------------|
A|--------------------------------------------------|
E|--------------------------------------------------|
    F                                            F..
VIDEO

Se il video non dovesse essere più disponibile scrivi a indytab@googlemail.com. Grazie!
COMMENTA QUESTA TABLATURA
Devi avere JavaScript attivato per poter commentare! (misura antispam)