IndyTab Logo

BETA VERSION - 321 TABS DISPONIBILI

Cerca una tablatura nel nostro archivio:

Gruppo Canzone


Elenco dei gruppi presenti su IndyTab
Lista di tutte le tablature di IndyTab
DISCLAIMER
Questa tablatura rappresenta l'interpretazione della canzone da parte dell'autore. Può essere usata per scopi di studio, insegnamento e ricerca.

La tab è liberamente riproducibile in forum, blog, siti web (ad eccezione degli archivi di tablature online) e stampabile. Non è obbligatorio ma molto gradito citare la fonte (cioè IndyTab), meglio con un link di rimando al nostro sito.
ACCORDATORE
Per accordare la tua chitarra puoi usare il nostro accordatore online
TAB REQUEST
Stai cercando una tablatura? Suggeriscila compilando il modulo sottostante!

Gruppo
Titolo
Tua Mail

(la tua mail verrà usata per ricontattarti quando la tablatura sarà online)
DELLO STESSO GRUPPO

Shandon // My Sun

Tablatura tratta dall'album: Skamobile

(clicca qui per la legenda)

(clicca qui per il video)

    C   G   F   Am     C  G  F  A
e|--0---3---1---0---|----------------|
B|--1---3---1---1---|----------------|
G|--0---0---2---2---|--5-------------|
D|--2---0---3---2---|--5--5--3--7----|
A|--3---2---3---0---|--3--5--3--7----|
E|--3---3---1-------|-----3--1--5----|
   accordi country    accordi punk

--------------------------------------------------------------------------


INTRO:
(chitarra country)
e|----0-0-----0-0-----0-0-----0-0-----3-3-----3-3-----3-3-----3-3-|
B|----1-1-----1-1-----1-1-----1-1-----3-3-----3-3-----3-3-----3-3-|
G|----0-0-----0-0-----0-0-----0-0-----0-0-----0-0-----0-0-----0-0-|
D|----2-2-----2-2-----2-2-----2-2-----0-0-----0-0-----0-0-----0-0-|
A|-3---------------3-----------------------2---------------2------|
E|---------3---------------3-------3---------------3--------------|
   C                               G

e|----1-1-----1-1-----3-3-----3-3-----0-0-----0-0-----0-0---------|
B|----1-1-----1-1-----3-3-----3-3-----1-1-----1-1-----1-1---------|
G|----2-2-----2-2-----0-0-----0-0-----0-0-----0-0-----0-0---------|
D|----3-3-----3-3-----0-0-----0-0-----2-2-----2-2-----2-2---------|
A|-------------------------2-------3---------------3-------3--2---|
E|-1-------1-------3-----------------------3----------------------|
   F               G               C

e|----0-0-----0-0-----0-0-----0-0-----1-1-----1-1-----1-1-----1-1-|
B|----1-1-----1-1-----1-1-----1-1-----1-1-----1-1-----1-1-----1-1-|
G|----2-2-----2-2-----2-2-----2-2-----2-2-----2-2-----2-2-----2-2-|
D|----2-2-----2-2-----2-2-----2-2-----3-3-----3-3-----3-3-----3-3-|
A|-0-------0-------0-------0--------------------------------------|
E|---------------------------------1-------1-------1-------1------|
   Am                              F

e|----0-0-----0-0-----3-3-----3-3-----0------------------------|
B|----1-1-----1-1-----3-3-----3-3-----1------------------------|
G|----0-0-----0-0-----0-0-----0-0-----0------------------------|
D|----2-2-----2-2-----0-0-----0-0-----2---0-0h2-0--------------|
A|-3-----------------------2-------3--------------3-0-3--------|
E|---------3-------3-------------------------------------------|
   C               G               C

(melodia armonica)
e|--------------------------------------------------------|
B|-5-6-8~---8-6-5------(5)/10-10-10~--8-10-8~---8-5-6-5~--|
G|----------------5-7~------------------------------------|
D|--------------------------------------------------------|
A|--------------------------------------------------------|
E|--------------------------------------------------------|

e|-3/8-8-8~---3/8-8-8~-5-----------------------------|
B|-----------------------8---5-6-6-5----6--5---------|
G|-------------------------------------------7-5~----|
D|---------------------------------------------------|
A|---------------------------------------------------|
E|---------------------------------------------------|



STROFA:
(chitarra country)
e|--------0-0-----0-0-----0-0-----0-0-----3-3-----3-3-----3-3-----3-3-|
B|--------1-1-----1-1-----1-1-----1-1-----3-3-----3-3-----3-3-----3-3-|
G|--------0-0-----0-0-----0-0-----0-0-----0-0-----0-0-----0-0-----0-0-|
D|--------2-2-----2-2-----2-2-----2-2-----0-0-----0-0-----0-0-----0-0-|
A|-----3---------------3-----------------------2---------------2------|
E|-------------3---------------3-------3---------------3--------------|
       C                               G
I'm a cowboy         and I run to the sun                I'm ready to

e|----1-1-----1-1-----3-3-----3-3-----0-0-----0-0-----0-0---------|
B|----1-1-----1-1-----3-3-----3-3-----1-1-----1-1-----1-1---------|
G|----2-2-----2-2-----0-0-----0-0-----0-0-----0-0-----0-0---------|
D|----3-3-----3-3-----0-0-----0-0-----2-2-----2-2-----2-2---------|
A|-------------------------2-------3---------------3-------3--2---|
E|-1-------1-------3-----------------------3----------------------|
   F               G               C
  die            in great balls of fire                  But how many

e|----0-0-----0-0-----0-0-----0-0-----1-1-----1-1-----1-1-----1-1-|
B|----1-1-----1-1-----1-1-----1-1-----1-1-----1-1-----1-1-----1-1-|
G|----2-2-----2-2-----2-2-----2-2-----2-2-----2-2-----2-2-----2-2-|
D|----2-2-----2-2-----2-2-----2-2-----3-3-----3-3-----3-3-----3-3-|
A|-0-------0-------0-------0--------------------------------------|
E|---------------------------------1-------1-------1-------1------|
   Am                              F
   roads             and how much time                Separate my

e|----0-0-----0-0-----3-3-----3-3-----0------------------------|
B|----1-1-----1-1-----3-3-----3-3-----1------------------------|
G|----0-0-----0-0-----0-0-----0-0-----0------------------------|
D|----2-2-----2-2-----0-0-----0-0-----2---0-0h2-0--------------|
A|-3-----------------------2-------3--------------3-0-3--------|
E|---------3-------3-------------------------------------------|
   C               G               C
  life                     and my sun



STROFA:
(accordi punk palm muted)

       C                       G
I am a cowboy and I sing on my horse

           F G                 C
Stories of love and wonderful girls

(accordi punk aperti)

             A                  F
But how many roads and how much time

            C  G         C    [C]
Separate my woman and my sun



STROFA:
(accordi punk)

       C                             G
I am a cowboy and I don't believe in God

            F  G             C
Because I'm evil and assault trains

             A                  F
But how many roads and how much time

            C   G           C    [C]
Separate my richness and my sun



SOLO:
(accordi punk)
e|----------------------------------------|
B|----------------------------------------|
G|---------------5-4--------4-5-7~--------|
D|------2-3-5~--------5-7-5---------------|
A|--3-5-----------------------------------|
E|----------------------------------------|
            C             G

e|-------------------------------------------------|
B|-------------------------------------------------|
G|----/10-10-10--/9-9-9--/7-7-7--/5-5-5------------|
D|---------------------------------------5-7-5~----|
A|-------------------------------------------------|
E|-------------------------------------------------|
       F                  G                  C

e|-----------------------------------------------------------------|
B|-------------------13-15-15b-15b-15b17r15p13----13----13---------|
G|-12-12-12-14~---14---------------------------14----14----14------|
D|-----------------------------------------------------------------|
A|-----------------------------------------------------------------|
E|-----------------------------------------------------------------|
            A                      F

e|--------------------------------------------------|
B|--------------------------------------------------|
G|-14-12---12-9-7---5-7b9-7b9-7b9r7p5-5~------------|
D|--------------------------------------------------|
A|--------------------------------------------------|
E|--------------------------------------------------|
   C                G               C       [C]



OUTRO:
(chitarra country)
e|----0-0-----0-0-----0-0--------0------|
B|----1-1-----1-1-----1-1--------1------|
G|----0-0-----0-0-----0-0--------0------|
D|----2-2-----2-2-----2-2--------2------|
A|-3---------------3---------0-2-3------|
E|---------3---------------3-----3------|
   C                             C..
VIDEO

Se il video non dovesse essere più disponibile scrivi a indytab@googlemail.com. Grazie!
COMMENTA QUESTA TABLATURA
Devi avere JavaScript attivato per poter commentare! (misura antispam)