IndyTab Logo

BETA VERSION - 321 TABS DISPONIBILI

Cerca una tablatura nel nostro archivio:

Gruppo Canzone


Elenco dei gruppi presenti su IndyTab
Lista di tutte le tablature di IndyTab
DISCLAIMER
Questa tablatura rappresenta l'interpretazione della canzone da parte dell'autore. Pu essere usata per scopi di studio, insegnamento e ricerca.

La tab liberamente riproducibile in forum, blog, siti web (ad eccezione degli archivi di tablature online) e stampabile. Non obbligatorio ma molto gradito citare la fonte (cio IndyTab), meglio con un link di rimando al nostro sito.
ACCORDATORE
Per accordare la tua chitarra puoi usare il nostro accordatore online
TAB REQUEST
Stai cercando una tablatura? Suggeriscila compilando il modulo sottostante!

Gruppo
Titolo
Tua Mail

(la tua mail verr usata per ricontattarti quando la tablatura sar online)

Atarassia Grp // Novembre '43

Tablatura tratta dall'album: Sempre Insieme A Voi

(clicca qui per la legenda)

(clicca qui per il video)

     C   F   G    C  D  F  G  E  F(VIII) E(0)
e|---3---1---3--|----------------------------|
B|---5---1---3--|----------------------------|
G|---5---2---4--|-5--7--------9----10--------|
D|---5---3---5--|-5--7--3--5--9----10-----2--|
A|---3---3---5--|-3--5--3--5--7-----8-----2--|
E|-------1---3--|-------1--3--------------0--|
   parte reggae           parte punk

--------------------------------------------------------------------------


FILL1:
e|-----------------|
B|-----------------|
G|----5-5--4--5----|
D|----5-5--4--5----|
A|----3-3--2--3----|
E|-----------------|
   accordi punk 


INTRO:
(ritmo reggae)

C F G FILL1


STROFA:
(ritmo reggae)

C                             F
La nebbia di novembre come un angelo caduto

G                                   C
si addormenta in val padana in poco meno di un minuto

C                    F                        G            FILL1
succedeva tutto come senza un perch in quell'autunno del'43

C                            F
Al collo un fazzoletto del colore del sangue

        G                         C
una mitraglia tra le mani fredde luride e stanche

C                           F
la staffetta pensa alla sua bella che l'aspetta

[F]                                      (pickslide)
e da una scatola di latta prende un'altra sigaretta


PRERITORNELLO:
(accordi punk)

C                         F
S beme che il nemico non tarda ad arrivare

    G                    C
che ha una buona mira e lui non sa sparare

C                          F
la paura lo congela ma per non sentirsi in croce

        [G]
canta un canto partigiano con un filo di voce:


RITORNELLO:
(accordi punk)

C             F           D            E  F(VIII)
oh partigiano portami via che mi sento di morire

C              F          D           E   F(VIII)
se io muoio oh partigiano tu mi devi seppellire 


(di nuovo reggae)


l sotto l'ombra di un bel fior


sotto l'ombra di un bel fior

STACCO:
e|-\8-8-13-13-13-12----|------8-8-----8-8-|------------------|
B|-\8-8-13-13-13-12----|---7/8-----7/8----|------------------|
G|---------------------|------------------|----5-5--4--5-----|  
D|---------------------|------------------|----5-5--4--5-----|
A|---------------------|------------------|----3-3--2--3-----|
E|---------------------|------------------|------------------|
                       <------- 3x ------->
La chitarra ritmica suona:
C F G FILL1


STROFA:
(ritmo reggae)

C                            F
Le idee le puoi accettare condividere od odiare

        G                         C
se ci credi davvero morire  meglio che scappare

C                            F               [F]      
e piuttosto che scappare resto fermo nel mirino


anche quando so che non vedr un'alto mattino...


PRERITORNELLO:
(accordi punk)

C                  F         G                   C
...e il 26 novembre 1943 fu l'ultimo mattino per soldati come me

C                           F
 convinto che la storia la facciamo tutti quanti

      [G]
basta solo aver le palle d'alzarsi e farsi avanti:


RITORNELLO:
come il primo


STACCO:
Come il primo


STACCO PUNK:
C F E(0) G (x6)
C..


OUTRO:
e|--------------------------------------------------------|
B|--------------------------------------------------------|
G|------------------5-----5------------------5-5--4--5----|
D|-----5-----5----3---3-3---3----------------5-5--4--5----|
A|---3---3-3---3-----------------5-----5-----3-3--2--3----|
E|-----------------------------3---3-3---3----------------|
    <-----------basso--------------------->
VIDEO

Se il video non dovesse essere pi disponibile scrivi a indytab@googlemail.com. Grazie!
COMMENTA QUESTA TABLATURA
Devi avere JavaScript attivato per poter commentare! (misura antispam)