IndyTab Logo

BETA VERSION - 321 TABS DISPONIBILI

Cerca una tablatura nel nostro archivio:

Gruppo Canzone


Elenco dei gruppi presenti su IndyTab
Lista di tutte le tablature di IndyTab
DISCLAIMER
Questa tablatura rappresenta l'interpretazione della canzone da parte dell'autore. Può essere usata per scopi di studio, insegnamento e ricerca.

La tab è liberamente riproducibile in forum, blog, siti web (ad eccezione degli archivi di tablature online) e stampabile. Non è obbligatorio ma molto gradito citare la fonte (cioè IndyTab), meglio con un link di rimando al nostro sito.
ACCORDATORE
Per accordare la tua chitarra puoi usare il nostro accordatore online
TAB REQUEST
Stai cercando una tablatura? Suggeriscila compilando il modulo sottostante!

Gruppo
Titolo
Tua Mail

(la tua mail verrà usata per ricontattarti quando la tablatura sarà online)
DELLO STESSO GRUPPO

Senza Sicura // L. T. L. M. Ska

Tablatura tratta dall'album: Più Di Mille

(clicca qui per la legenda)

(clicca qui per il video)

    Bb  Eb  F  Gm  Cm  Dm        Bb   Eb   F    G
e|--5---6---8--3---3---5-----|-----------------------|
B|--5---8--10--3---4---6-----|-----------------------|
G|--7---8--10--3---5---7-----|--------8----10--------|
D|--8---8--10--5---5---7-----|---8----8----10---5----|
A|--8---6---8--5---3---5-----|---8----6----8----5----|
E|--6----------3-------------|---6--------------3----|
      accordi parte ska         accordi distorti

--------------------------------------------------------------------------


RIFF:
e|------------------------------------------------------------|
B|------------------------------------------------------------|
G|-10-10-7-------------7--------/12-12----12-10\--7----7------|
D|---------10-8-----10---10-8~---------13-----------10---10-8-|
A|------------------------------------------------------------|
E|------------------------------------------------------------|
  Bb                        Eb               F

e|------------------------------------------------------------|
B|------------------------------------------------------------|
G|-10-10-7-------------7--------/12-12----12-14\--7----7------|
D|---------10-8-----10---10-8~---------13-----------10---10-8-|
A|------------------------------------------------------------|
E|------------------------------------------------------------|
  Bb                        Eb               F



FILL1:
e|---------------|
B|---------------|
G|---7----7------|
D|-----10---10-8-|
A|---------------|
E|---------------|



FILL2:
e|-------------|
B|------8------|
G|----8---8----|
D|--8-------8--|
A|-------------|
E|-------------|
   (Eb)



FILL3:
e|--------|
B|--------|
G|--------|
D|--8~----|
A|--------|
E|--------|



INTRO:
RIFF  x2, la prima volta chitarra a colpi, la seconda con ritmo ska



STROFA:

Bb                                Eb
Imbottito di alcool ascolto dal senato

              F                 Bb  
giudizi equilibrati sereni ma decisi

                                   Eb
su chi devo ascoltare su cosa devo fare

               F                     Bb  
su dove non sbagliare su dove devo andare

                                    Eb
disteso sul mio letto un sogno come tetto

               F                  Bb  
immagino un reietto sputare sullo Stato

                                   Eb
e il popolo in azione gridar Rivoluzione

              F                      Bb  
e i giovani ribelli spaccare e farsi belli

                                      Eb
di fronte al senatore che legiferando muore

                    F
perché ha succhiato troppo e non ha sputato

   Cm..                     Dm..
un cazzo per la gente che lavora

                    Eb.. + FILL2
ed intanto il tempo vola



RITORNELLO:

Eb            F            Bb
vola tra i risparmi di una vita

   Gm             Eb
il tempo passa in fretta

       F             Bb
e il lavoro è una prigione

   Gm              Eb [F] FILL1
da cui non si esce mai



RIFF:
Ripetere il RIFF con accordi ska normali una volta.



STROFA:

Bb                                 Eb
ti chiedono la vita ma non è mai finita

               F                Bb
non revi rallentare devi collaborare

                                       Eb
se questa barca affonda è colpa di chi rema

                  F                       Bb
e scendere giù in piazza non serve alla nazione

                                        Eb
se poi ti vuoi sfogare nel catino dello stadio

                F                          Bb
è sempre meglio che farlo su orario e su salario

                                   Eb
poi otto ore piene ti faran dimenticare

                     F
per chi batte il tuo cuore per chi devi

   Cm..                    Dm..
lottare per la gente che lavora

                    Eb.. + FILL2
ed intanto il tempo vola



RITORNELLO:

Eb            F            Bb
vola tra i risparmi di una vita

   Gm             Eb
il tempo passa in fretta

       F             Bb
e il lavoro è una prigione

   Gm              Eb
da cui non si esce mai

          F           Bb        Gm
e tutto attorno si consuma lentamente

      Eb            F
chi comanda non ti lascia più

   Bb           Gm       FILL3
il tempo per decidere di te


(qui ritmo ska veloce)

Eb F Bb Gm
       per decidere con noi

Eb F Bb Gm
       per lottare assieme a voi

Eb F Bb Gm
      per riprenderci la

(distorto + ska)
Eb..           F..         Bb
vita perché il tempo se ne va..



OUTRO:

(chitarra distorta + chitarra ska)
e|------------------------------------------------------------|
B|------------------------------------------------------------|
G|-10-10-7-------------7--------/12-12----12-10\--7----7------|
D|---------10-8-----10---10-8~---------13-----------10---10-8-|
A|------------------------------------------------------------|
E|------------------------------------------------------------| 
  Bb          Gm            Eb               F
                                 perché  il  tempo  se  ne  va...

e|------------------------------------------------------------|
B|------------------------------------------------------------|
G|-10-10-7-------------7--------/12-12----12-14\--7----7------|
D|---------10-8-----10---10-8~---------13-----------10---10-8-|
A|------------------------------------------------------------|
E|------------------------------------------------------------|
  Bb          Gm            Eb               F
                                 perché  il  tempo  se  ne  va...   

e|------------------------------------------------------------|
B|------------------------------------------------------------|
G|-10-10-7-------------7--------/12-12----12-10\--7----7------|
D|---------10-8-----10---10-8~---------13-----------10---10-8-|
A|------------------------------------------------------------|
E|------------------------------------------------------------| 
  Bb          Gm            Eb               F
                                 perché  il  tempo  se  ne  va...  

e|------------------------------------------------------------|
B|------------------------------------------------------------|
G|-10-10-7-------------7--------/12-12----12-14\--7----7------|
D|---------10-8-----10---10-8~---------13-----------10---10-8-|
A|------------------------------------------------------------|
E|------------------------------------------------------------|
  Bb          Gm            Eb               [F]            Bb..
                                 

--------------------------------------------------------------------------


NOTE

Praticamente per tutta la canzone, una chitarra fa dei riff in palm muted
come accompagnamento.
Piuttosto che impararli a memoria (lavoro decisamente costoso), è 
possibile renderli più semplici, magari improvvisando, seguendo gli 
accordi del giro di chitarra.

Ad esempio, se l'accordo è Bb, usare i tasti

e|-------------|
B|-------------|
G|-------------|
D|-------------|
A|-----5-6-8---|
E|---6---------|


Di seguito vengono riportati i suggerimenti per i tasti per gli altri
accordi usati.

Eb
e|-------------|
B|-------------|
G|-------------|
D|-----5-6-8---|
A|---6---------|
E|-------------|

F
e|-------------|
B|-------------|
G|-------------|
D|-----7-8-10--|
A|---8---------|
E|-------------|

Gm
e|-------------|
B|-------------|
G|-------------|
D|-------------|
A|-----2-3-5---|
E|---3---------|
VIDEO

Se il video non dovesse essere più disponibile scrivi a indytab@googlemail.com. Grazie!
COMMENTA QUESTA TABLATURA
Devi avere JavaScript attivato per poter commentare! (misura antispam)