IndyTab Logo

BETA VERSION - 321 TABS DISPONIBILI

Cerca una tablatura nel nostro archivio:

Gruppo Canzone


Elenco dei gruppi presenti su IndyTab
Lista di tutte le tablature di IndyTab
DISCLAIMER
Questa tablatura rappresenta l'interpretazione della canzone da parte dell'autore. Può essere usata per scopi di studio, insegnamento e ricerca.

La tab è liberamente riproducibile in forum, blog, siti web (ad eccezione degli archivi di tablature online) e stampabile. Non è obbligatorio ma molto gradito citare la fonte (cioè IndyTab), meglio con un link di rimando al nostro sito.
ACCORDATORE
Per accordare la tua chitarra puoi usare il nostro accordatore online
TAB REQUEST
Stai cercando una tablatura? Suggeriscila compilando il modulo sottostante!

Gruppo
Titolo
Tua Mail

(la tua mail verrà usata per ricontattarti quando la tablatura sarà online)
DELLO STESSO GRUPPO

Tre Allegri Ragazzi Morti // Voglio

Tablatura tratta dall'album: Il Sogno Del Gorilla Bianco

(clicca qui per la legenda)

(clicca qui per il video)

    C  B  G  G(X)
e|--------------------|
B|--------------------|
G|--5--4-----12-------|
D|--5--4--5--12-------|
A|--3--2--5--10-------|
E|--------3-----------|


--------------------------------------------------------------------------


INTRO:
(chitarra pulita)
e|--------------------------------------------------|
B|--------------------------------------------------|
G|--------------------------------------------------|
D|-----7----5----4--------------------4-------------|
A|---5----3----2-----------5--------2---------------|
E|-----------------------3--------------------------|

e|--------------------------------------------------|
B|--------------------------------------------------|
G|-----------------------------------7--------------|
D|-----7----5----4-------------------5--------------|
A|---5----3----2-----------5--------3---------------|
E|-----------------------3--------------------------|



STROFA:
(palm muted)

C           B    G          B
Voglio respirare come un animale

C            B    G          B
voglio stare bene come un animale

C            B          G          B
spero di dormire almeno come un animale

C               B    G          B
e riuscirò a giocare come un animale



STACCO:
(suonare più volte ogni ottava o accordo)

e|------------------------|
B|------------------------|
G|--5---7---9---11--12----|
D|------------------12----|x3
A|--3---5---7---9---10----|
E|------------------------|
    C(a colpi)  [C] 

e|-------------------------------|
B|-------------------------------|
G|--5---7---9---11--12----12..---|
D|------------------12----12..---|
A|--3---5---7---9---10----10..---|
E|-------------------------------|
    C(a colpi)  [C] 



STROFA:
(palm muted)

C          B    G          B
voglio rotolare come un animale

C             B    G          B
ti voglio annusare come un animale

C                 B          G          B
voglio imparare a stare solo come un animale

C                         B
guardare in faccia ogni pericolo

   G              B            (C)     
ma sono un uomo e non lo posso fare



STACCO:
(suonare più volte ogni ottava o accordo)

e|------------------------|
B|------------------------|
G|--5---7---9---11--12----|
D|------------------12----|x3
A|--3---5---7---9---10----|
E|------------------------|
    C(a colpi)  [C] 
            non sono un animale

e|-------------------------------|
B|-------------------------------|
G|--5---7---9---11--12----12..---|
D|------------------12----12..---|
A|--3---5---7---9---10----10..---|
E|-------------------------------|
    C(a colpi)  [C]



STROFA:
(palm muted)

C          B        G
respirare, correre, riposare

B         C          B
abbaiare, continuare a far l'amore

G            B
invecchiare, morire

C        B         G        B        C          B
ululare, rotolare, correre, dormire, respirare, morire

   G              B            (C)
ma sono un uomo e non lo posso fare



STACCO:
(suonare più volte ogni ottava o accordo)

e|------------------------|
B|------------------------|
G|--5---7---9---11--12----|
D|------------------12----|x3
A|--3---5---7---9---10----|
E|------------------------|
    C(a colpi)  [C] 
            non sono un animale

e|-------------------------------|
B|-------------------------------|
G|--5---7---9---11--12----12..---|
D|------------------12----12..---|
A|--3---5---7---9---10----10..---|
E|-------------------------------|
    C(a colpi)  [C]
VIDEO

Se il video non dovesse essere più disponibile scrivi a indytab@googlemail.com. Grazie!
COMMENTA QUESTA TABLATURA
Devi avere JavaScript attivato per poter commentare! (misura antispam)