IndyTab Logo

BETA VERSION - 321 TABS DISPONIBILI

Cerca una tablatura nel nostro archivio:

Gruppo Canzone


Elenco dei gruppi presenti su IndyTab
Lista di tutte le tablature di IndyTab
DISCLAIMER
Questa tablatura rappresenta l'interpretazione della canzone da parte dell'autore. Può essere usata per scopi di studio, insegnamento e ricerca.

La tab è liberamente riproducibile in forum, blog, siti web (ad eccezione degli archivi di tablature online) e stampabile. Non è obbligatorio ma molto gradito citare la fonte (cioè IndyTab), meglio con un link di rimando al nostro sito.
ACCORDATORE
Per accordare la tua chitarra puoi usare il nostro accordatore online
TAB REQUEST
Stai cercando una tablatura? Suggeriscila compilando il modulo sottostante!

Gruppo
Titolo
Tua Mail

(la tua mail verrà usata per ricontattarti quando la tablatura sarà online)
DELLO STESSO GRUPPO

Derozer // 2100

Tablatura tratta dall'album: Alla Nostra Età

(clicca qui per la legenda)

     A    B    G    D    E   C#   F#
e|-------------------------------------|
B|-------------------------------------|
G|------------------7----9----6---11---|
D|---7----9----5----7----9----6---11---|
A|---7----9----5----5----7----4----9---|
E|---5----7----3-----------------------|


--------------------------------------------------------------------------


INTRO:

e|----------------------------------|
B|----------------------------------|
G|--6/-7-7--6/7-7-------------------|
D|-------------------7-7-7-7--7-7-7-|
A|----------------------------------|
E|----------------------------------|

e|----------------------------------|
B|----------------------------------|
G|--6/-7-7--6/7-7-------------------|
D|-------------------7-7-7-7--------|
A|----------------------------------|
E|----------------------------------|

STROFA:

D               G            A
Nel 2100 l'aria tornerà ad esser pulita

D                G          A
nel 2100 il mare tornerà di nuovo blu

D                G             A
nel 2100 il sole splenderà nel cielo azzurro

D              G        A 
nel 2100 non lavoreremo mai più in turno



RITORNELLO:

G       A
2100 lo sai

(D)   (C#)   (B)   (A)             G
non ci saranno più guai… uoh oh oh oh

        A                           (D) (C#) (B) (A) G
e noi saremo uniti come non è stato mai

          G              A
perché lo sai, perché lo sai

         (F#) (E) (D) (C#)
tu nel 2100 dove sarai

          G              A              D (a colpi)
perché lo sai, perché lo sai, perché lo sai



STROFA:

D               G           A
Nel 2100 non ci saranno più le frontiere

D               G           A
nel 2100 non ci saranno più il nord e il sud

D               G            A
nel 2100 non ci saran più le malattie

D               G            A
nel 2100 non ci saran più né fame né guerra



RITORNELLO:
Ripetere il ritornello.



PONTE:
Come la strofa con il coro al posto delle parole.



ULTIMO RITORNELLO:
Ripetere il ritornello, finire con D.. D..
COMMENTA QUESTA TABLATURA
Devi avere JavaScript attivato per poter commentare! (misura antispam)